  0
SECTION
  2
HEADER
  9
$LIMMIN
 10
0
 20
0
  9
$LIMMAX
 10
52.5
 20
74.25
  9
$EXTMIN
 10
0
 20
72
  9
$EXTMAX
 10
0
 20
42
  0
ENDSEC
  0
SECTION
  2
TABLES
  0
TABLE
  2
LTYPE
 70
9
  0
LTYPE
  2
CONTINUOUS
 70
64
  3
Solid line
 72
65
 73
0
 40
0
  0
LTYPE
  2
DASHED
 70
64
  3
__ __ __ __ __ __ __ __ __
 72
65
 73
2
 40
0.75
 49
0.5
 49
-0.25
  0
LTYPE
  2
DOT
 70
64
  3
...........................
 72
65
 73
2
 40
0.25
 49
0
 49
-0.25
  0
LTYPE
  2
DASHDOT
 70
64
  3
__ . __ . __ . __ . __ . __ . 
 72
65
 73
4
 40
1
 49
0.5
 49
-0.25
 49
0
 49
-0.25
  0
ENDTAB
  0
TABLE
  2
LAYER
 70
10
  0
LAYER
  2
1
 70
0
 62
7
  6
CONTINUOUS
  0
LAYER
  2
CONNECTIONS
 70
0
 62
-7
  6
CONTINUOUS
  0
ENDTAB
  0
ENDSEC
  0
SECTION
  2
BLOCKS
  0
BLOCK
  8
0
  2
TRICON
 70
0
 10
0
 20
0
  0
POLYLINE
  8
1
 70
1
 66
1
 40
0.5
 41
0.5
  0
VERTEX
  8
1
 10
-0.25
 20
0
 42
1
  0
VERTEX
  8
1
 10
0.25
 20
0
 42
1
  0
SEQEND
  8
1
  0
ENDBLK
  8
0
  0
BLOCK
  8
0
  2
TRICONSMALL
 70
0
 10
0
 20
0
  0
POLYLINE
  8
1
 70
1
 66
1
 40
0.25
 41
0.25
  0
VERTEX
  8
1
 10
-0.125
 20
0
 42
1
  0
VERTEX
  8
1
 10
0.125
 20
0
 42
1
  0
SEQEND
  8
1
  0
ENDBLK
  8
0
  0
BLOCK
  8
0
  2
TRICONCIRCLE
 70
0
 10
0
 20
0
  0
CIRCLE
  8
1
 10
0
 20
0
 40
0.5
  0
ENDBLK
  8
0
  0
BLOCK
  8
0
  2
LCBP0
 70
0
 10
0
 20
0
  0
LINE
  8
1
 10
0
 20
-0.46875
 11
0
 21
0.46875
  0
ENDBLK
  8
0
  0
BLOCK
  8
0
  2
LCBP1
 70
0
 10
0
 20
0
  0
LINE
  8
1
 10
0
 20
-0.625
 11
0
 21
0.625
  0
ENDBLK
  8
0
  0
BLOCK
  8
0
  2
LCBP2
 70
0
 10
0
 20
0
  0
LINE
  8
1
 10
0
 20
-0.9375
 11
0
 21
0.9375
  0
ENDBLK
  8
0
  0
BLOCK
  8
0
  2
LCA1
 70
0
 10
0
 20
0
  0
SOLID
  8
1
 62
7 
 10
0
 20
0
 11
-1.4
 21
-0.275
 12
-1.4
 22
0.275
 13
-1.4
 23
0.275
  0
ENDBLK
  8
0
  0
BLOCK
  8
0
  2
LCA2
 70
0
 10
0
 20
0
  0
SOLID
  8
1
 62
7 
 10
0
 20
0
 11
-1.65
 21
-0.525
 12
-1.65
 22
0.525
 13
-1.65
 23
0.525
  0
ENDBLK
  8
0
  0
BLOCK
  8
0
  2
LCA3
 70
0
 10
0
 20
0
  0
SOLID
  8
1
 62
7 
 10
0
 20
0
 11
-2.15
 21
-1.15
 12
-2.15
 22
1.15
 13
-2.15
 23
1.15
  0
ENDBLK
  8
0
  0
BLOCK
  8
0
  2
LCA1R
 70
0
 10
0
 20
0
  0
SOLID
  8
1
 62
7 
 10
0
 20
0
 11
1.4
 21
-0.275
 12
1.4
 22
0.275
 13
1.4
 23
0.275
  0
ENDBLK
  8
0
  0
BLOCK
  8
0
  2
LCA2R
 70
0
 10
0
 20
0
  0
SOLID
  8
1
 62
7 
 10
0
 20
0
 11
1.65
 21
-0.525
 12
1.65
 22
0.525
 13
1.65
 23
0.525
  0
ENDBLK
  8
0
  0
BLOCK
  8
0
  2
LCA3R
 70
0
 10
0
 20
0
  0
SOLID
  8
1
 62
7 
 10
0
 20
0
 11
2.15
 21
-1.15
 12
2.15
 22
1.15
 13
2.15
 23
1.15
  0
ENDBLK
  8
0
  0
BLOCK
  8
0
  2
B5839_00991768
 70
0
 10
0
 20
0
  0
POLYLINE
  8
1
  6
DASHDOT
 66
1
  0
VERTEX
  8
1
 10
-32
 20
17
  0
VERTEX
  8
1
 10
32
 20
17
  0
VERTEX
  8
1
 10
32
 20
-17
  0
VERTEX
  8
1
 10
-32
 20
-17
  0
VERTEX
  8
1
 10
-32
 20
17
  0
SEQEND
  8
1
  0
LINE
  8
1
 10
32
 20
-1
 11
36
 21
-1
  0
LINE
  8
1
 10
8
 20
-17
 11
8
 21
-19
  0
LINE
  8
1
 10
8
 20
19
 11
8
 21
17
  0
LINE
  8
1
 10
-22
 20
-17
 11
-22
 21
-21
  0
LINE
  8
1
 10
-36
 20
-1
 11
-32
 21
-1
  0
TEXT
  8
1
 40
2.475
 41
0.75
  1
1
  7
STANDARD
 72
2
 10
-32.4655974188913
 20
0.88445042088071
 11
-32.4655974188913
 21
0.88445042088071
  0
TEXT
  8
1
 40
2.475
 41
0.75
  1
2
  7
STANDARD
 73
2
 10
33.1584699453552
 20
2.01639344262298
 11
33.1584699453552
 21
2.01639344262298
  0
LINE
  8
1
 10
8
 20
-17
 11
8
 21
17
  0
LINE
  8
1
 10
27.6632440258504
 20
-1
 11
32
 21
-1
  0
POLYLINE
  8
1
 66
1
  0
VERTEX
  8
1
 10
-14
 20
-1
  0
VERTEX
  8
1
 10
-14
 20
-11
  0
VERTEX
  8
1
 10
-12
 20
-11
  0
SEQEND
  8
1
  0
LINE
  8
1
 10
-16.3410591568717
 20
-1
 11
-12
 21
-1
  0
LINE
  8
1
 10
-22
 20
-6.67031820552947
 11
-22
 21
-17
  0
LINE
  8
1
 10
-32
 20
-1
 11
-27.6547676558565
 21
-1
  0
LINE
  8
1
 10
-4
 20
-1
 11
16.3495355268655
 21
-1
  0
POLYLINE
  8
1
 70
1
 66
1
 40
0.5
 41
0.5
  0
VERTEX
  8
1
 10
-14.25
 20
-1
 42
1
  0
VERTEX
  8
1
 10
-13.75
 20
-1
 42
1
  0
SEQEND
  8
1
  0
POLYLINE
  8
1
 70
1
 66
1
 40
0.5
 41
0.5
  0
VERTEX
  8
1
 10
-0.25
 20
-1
 42
1
  0
VERTEX
  8
1
 10
0.25
 20
-1
 42
1
  0
SEQEND
  8
1
  0
POLYLINE
  8
1
 66
1
  0
VERTEX
  8
1
 10
-2
 20
-11
  0
VERTEX
  8
1
 10
0
 20
-11
  0
VERTEX
  8
1
 10
0
 20
-1
  0
SEQEND
  8
1
  0
LINE
  8
1
 10
0
 20
5
 11
0
 21
-1
  0
LINE
  8
1
 10
8
 20
-19
 11
8
 21
-21
  0
INSERT
  8
1
  2
LCBP1
 10
8
 20
-21
 50
-90
  0
LINE
  8
1
 10
8
 20
19
 11
8
 21
21
  0
INSERT
  8
1
  2
LCBP1
 10
8
 20
21
 50
90
  0
LINE
  8
1
 10
22.0063897763578
 20
1.35995740149095
 11
22.0063897763578
 21
4.67366590047569
  0
POLYLINE
  8
1
 66
1
  0
VERTEX
  8
1
 10
22.0063897763578
 20
4.67366590047568
  0
VERTEX
  8
1
 10
16.3495355268655
 20
-0.9831883490167
  0
VERTEX
  8
1
 10
22.0063897763578
 20
-6.64004259850908
  0
VERTEX
  8
1
 10
27.6632440258502
 20
-0.9831883490167
  0
VERTEX
  8
1
 10
22.0063897763578
 20
4.67366590047568
  0
SEQEND
  8
1
  0
POLYLINE
  8
1
 66
1
  0
VERTEX
  8
1
 10
-21.9979134063641
 20
4.64339029345528
  0
VERTEX
  8
1
 10
-27.6547676558565
 20
-1.0134639560371
  0
VERTEX
  8
1
 10
-21.9979134063641
 20
-6.67031820552948
  0
VERTEX
  8
1
 10
-16.3410591568717
 20
-1.0134639560371
  0
VERTEX
  8
1
 10
-21.9979134063641
 20
4.64339029345528
  0
SEQEND
  8
1
  0
LINE
  8
1
  6
DASHED
 10
-21.9978992728613
 20
-4.67031820552947
 11
-21.9978992728613
 21
4.64339029345525
  0
LINE
  8
1
 10
-23.997886279628
 20
-4.67031820552947
 11
-19.997901147166
 21
-4.67031820552947
  0
POLYLINE
  8
1
 66
1
  0
VERTEX
  8
1
 10
-23.997886279628
 20
-4.67034533226555
  0
VERTEX
  8
1
 10
-21.9979134063641
 20
-6.67031820552948
  0
VERTEX
  8
1
 10
-19.997901147166
 20
-4.6703059463314
  0
SEQEND
  8
1
  0
LINE
  8
1
 10
1.76776695296636
 20
7.23223304703364
 11
-1.76776695296637
 21
10.7677669529664
  0
INSERT
  8
1
  2
LCA1
 10
-1.76776695296637
 20
10.7677669529664
 50
135
  0
CIRCLE
  8
1
 10
0
 20
9
 40
4
  0
LINE
  8
1
 10
-6
 20
-11
 11
-2
 21
-11
  0
LINE
  8
1
 10
-12
 20
-11
 11
-8.47599625766112
 21
-11
  0
CIRCLE
  8
1
 10
-7.5
 20
-11
 40
1
  0
POLYLINE
  8
1
 66
1
  0
VERTEX
  8
1
 10
-8
 20
-13
  0
VERTEX
  8
1
 10
-6
 20
-11
  0
VERTEX
  8
1
 10
-8
 20
-9
  0
SEQEND
  8
1
  0
POLYLINE
  8
1
 70
1
 66
1
 40
0.5
 41
0.5
  0
VERTEX
  8
1
 10
7.75
 20
-1
 42
1
  0
VERTEX
  8
1
 10
8.25
 20
-1
 42
1
  0
SEQEND
  8
1
  0
POLYLINE
  8
1
 66
1
  0
VERTEX
  8
1
 10
4
 20
2
  0
VERTEX
  8
1
 10
12
 20
2
  0
VERTEX
  8
1
 10
12
 20
-4
  0
VERTEX
  8
1
 10
4
 20
-4
  0
VERTEX
  8
1
 10
4
 20
2
  0
SEQEND
  8
1
  0
LINE
  8
1
 10
-14.4425978826423
 20
6.27036371433004
 11
-5.55712642134017
 21
8.72971259368521
  0
INSERT
  8
1
  2
LCA1
 10
-5.55712642134017
 20
8.72971259368521
 50
15.4711922908485
  0
POLYLINE
  8
1
 66
1
  0
VERTEX
  8
1
 10
-9.99988891190037
 20
5.0000231433541
  0
VERTEX
  8
1
 10
-7.99988891190037
 20
5.4166898100208
  0
VERTEX
  8
1
 10
-11.9998889119004
 20
6.2500231433541
  0
VERTEX
  8
1
 10
-7.99988891190037
 20
7.08335647668745
  0
VERTEX
  8
1
 10
-11.9998889119004
 20
7.9166898100208
  0
VERTEX
  8
1
 10
-7.99988891190037
 20
8.7500231433541
  0
VERTEX
  8
1
 10
-11.9998889119004
 20
9.5833564766874
  0
VERTEX
  8
1
 10
-9.99988891190037
 20
10.0000231433541
  0
SEQEND
  8
1
  0
POLYLINE
  8
1
 66
1
  0
VERTEX
  8
1
 10
-12
 20
4
  0
VERTEX
  8
1
 10
-14
 20
3
  0
VERTEX
  8
1
 10
-12
 20
2
  0
SEQEND
  8
1
  0
POLYLINE
  8
1
  6
DOT
 66
1
  0
VERTEX
  8
1
 10
-10
 20
-3
  0
VERTEX
  8
1
 10
-10
 20
-7
  0
VERTEX
  8
1
 10
-2
 20
-7
  0
VERTEX
  8
1
 10
-2
 20
-3
  0
VERTEX
  8
1
 10
-4
 20
-1
  0
SEQEND
  8
1
  0
POLYLINE
  8
1
 66
1
  0
VERTEX
  8
1
 10
-12
 20
-3
  0
VERTEX
  8
1
 10
-4
 20
-3
  0
VERTEX
  8
1
 10
-4
 20
5
  0
VERTEX
  8
1
 10
-12
 20
5
  0
VERTEX
  8
1
 10
-12
 20
-3
  0
SEQEND
  8
1
  0
LINE
  8
1
 10
-4
 20
-1
 11
-12
 21
-1
  0
INSERT
  8
1
  2
LCA1
 10
-12
 20
-1
 50
-180
  0
INSERT
  8
1
  2
LCA1R
 10
-4
 20
-1
 50
-180
  0
CIRCLE
  8
CONNECTIONS
 10
36
 20
-1
 40
0
  0
CIRCLE
  8
CONNECTIONS
 10
-36
 20
-1
 40
0
  0
CIRCLE
  8
CONNECTIONS
 10
8
 20
-19
 40
0
  0
CIRCLE
  8
CONNECTIONS
 10
8
 20
19
 40
0
  0
ENDBLK
  8
0
  0
ENDSEC
  0
SECTION
  2
ENTITIES
  0
INSERT
  8
1
  2
B5839_00991768
 10
36
 20
21
  0
ENDSEC
  0
EOF
