  0
SECTION
  2
HEADER
  9
$LIMMIN
 10
0
 20
0
  9
$LIMMAX
 10
52.5
 20
74.25
  9
$EXTMIN
 10
0
 20
96
  9
$EXTMAX
 10
0
 20
44
  0
ENDSEC
  0
SECTION
  2
TABLES
  0
TABLE
  2
LTYPE
 70
9
  0
LTYPE
  2
CONTINUOUS
 70
64
  3
Solid line
 72
65
 73
0
 40
0
  0
LTYPE
  2
DASHED
 70
64
  3
__ __ __ __ __ __ __ __ __
 72
65
 73
2
 40
0.75
 49
0.5
 49
-0.25
  0
LTYPE
  2
DOT
 70
64
  3
...........................
 72
65
 73
2
 40
0.25
 49
0
 49
-0.25
  0
LTYPE
  2
DASHDOT
 70
64
  3
__ . __ . __ . __ . __ . __ . 
 72
65
 73
4
 40
1
 49
0.5
 49
-0.25
 49
0
 49
-0.25
  0
ENDTAB
  0
TABLE
  2
LAYER
 70
10
  0
LAYER
  2
1
 70
0
 62
7
  6
CONTINUOUS
  0
LAYER
  2
CONNECTIONS
 70
0
 62
-7
  6
CONTINUOUS
  0
ENDTAB
  0
ENDSEC
  0
SECTION
  2
BLOCKS
  0
BLOCK
  8
0
  2
TRICON
 70
0
 10
0
 20
0
  0
POLYLINE
  8
1
 70
1
 66
1
 40
0.5
 41
0.5
  0
VERTEX
  8
1
 10
-0.25
 20
0
 42
1
  0
VERTEX
  8
1
 10
0.25
 20
0
 42
1
  0
SEQEND
  8
1
  0
ENDBLK
  8
0
  0
BLOCK
  8
0
  2
TRICONSMALL
 70
0
 10
0
 20
0
  0
POLYLINE
  8
1
 70
1
 66
1
 40
0.25
 41
0.25
  0
VERTEX
  8
1
 10
-0.125
 20
0
 42
1
  0
VERTEX
  8
1
 10
0.125
 20
0
 42
1
  0
SEQEND
  8
1
  0
ENDBLK
  8
0
  0
BLOCK
  8
0
  2
TRICONCIRCLE
 70
0
 10
0
 20
0
  0
CIRCLE
  8
1
 10
0
 20
0
 40
0.5
  0
ENDBLK
  8
0
  0
BLOCK
  8
0
  2
LCBP0
 70
0
 10
0
 20
0
  0
LINE
  8
1
 10
0
 20
-0.46875
 11
0
 21
0.46875
  0
ENDBLK
  8
0
  0
BLOCK
  8
0
  2
LCBP1
 70
0
 10
0
 20
0
  0
LINE
  8
1
 10
0
 20
-0.625
 11
0
 21
0.625
  0
ENDBLK
  8
0
  0
BLOCK
  8
0
  2
LCBP2
 70
0
 10
0
 20
0
  0
LINE
  8
1
 10
0
 20
-0.9375
 11
0
 21
0.9375
  0
ENDBLK
  8
0
  0
BLOCK
  8
0
  2
LCA1
 70
0
 10
0
 20
0
  0
SOLID
  8
1
 62
7 
 10
0
 20
0
 11
-1.4
 21
-0.275
 12
-1.4
 22
0.275
 13
-1.4
 23
0.275
  0
ENDBLK
  8
0
  0
BLOCK
  8
0
  2
LCA2
 70
0
 10
0
 20
0
  0
SOLID
  8
1
 62
7 
 10
0
 20
0
 11
-1.65
 21
-0.525
 12
-1.65
 22
0.525
 13
-1.65
 23
0.525
  0
ENDBLK
  8
0
  0
BLOCK
  8
0
  2
LCA3
 70
0
 10
0
 20
0
  0
SOLID
  8
1
 62
7 
 10
0
 20
0
 11
-2.15
 21
-1.15
 12
-2.15
 22
1.15
 13
-2.15
 23
1.15
  0
ENDBLK
  8
0
  0
BLOCK
  8
0
  2
LCA1R
 70
0
 10
0
 20
0
  0
SOLID
  8
1
 62
7 
 10
0
 20
0
 11
1.4
 21
-0.275
 12
1.4
 22
0.275
 13
1.4
 23
0.275
  0
ENDBLK
  8
0
  0
BLOCK
  8
0
  2
LCA2R
 70
0
 10
0
 20
0
  0
SOLID
  8
1
 62
7 
 10
0
 20
0
 11
1.65
 21
-0.525
 12
1.65
 22
0.525
 13
1.65
 23
0.525
  0
ENDBLK
  8
0
  0
BLOCK
  8
0
  2
LCA3R
 70
0
 10
0
 20
0
  0
SOLID
  8
1
 62
7 
 10
0
 20
0
 11
2.15
 21
-1.15
 12
2.15
 22
1.15
 13
2.15
 23
1.15
  0
ENDBLK
  8
0
  0
BLOCK
  8
0
  2
B5691_00991764
 70
0
 10
0
 20
0
  0
POLYLINE
  8
1
  6
DASHDOT
 66
1
  0
VERTEX
  8
1
 10
-44
 20
22
  0
VERTEX
  8
1
 10
44
 20
22
  0
VERTEX
  8
1
 10
44
 20
-18
  0
VERTEX
  8
1
 10
-44
 20
-18
  0
VERTEX
  8
1
 10
-44
 20
22
  0
SEQEND
  8
1
  0
LINE
  8
1
 10
44
 20
-2
 11
48
 21
-2
  0
LINE
  8
1
 10
4
 20
-18
 11
4
 21
-22
  0
POLYLINE
  8
1
 66
1
  0
VERTEX
  8
1
 10
-34
 20
-22
  0
VERTEX
  8
1
 10
-34
 20
-18
  0
SEQEND
  8
1
  0
LINE
  8
1
 10
-48
 20
-2
 11
-44
 21
-2
  0
TEXT
  8
1
 40
2.475
 41
0.75
  1
2
  7
STANDARD
 73
2
 10
45.1584699453552
 20
1.01639344262298
 11
45.1584699453552
 21
1.01639344262298
  0
TEXT
  8
1
 40
2.475
 41
0.75
  1
3
  7
STANDARD
 73
2
 10
-0.592037831258655
 20
-21.5602462620932
 11
-0.592037831258655
 21
-21.5602462620932
  0
TEXT
  8
1
 40
2.475
 41
0.75
  1
1
  7
STANDARD
 72
2
 10
-44.4655974188913
 20
-0.11554957911929
 11
-44.4655974188913
 21
-0.11554957911929
  0
LINE
  8
1
 10
36
 20
-2
 11
44
 21
-2
  0
POLYLINE
  8
1
 66
1
  0
VERTEX
  8
1
 10
4
 20
-18
  0
VERTEX
  8
1
 10
4
 20
-6
  0
VERTEX
  8
1
 10
8
 20
-6
  0
SEQEND
  8
1
  0
LINE
  8
1
 10
3.6568542494924
 20
-2
 11
8
 21
-2
  0
LINE
  8
1
 10
-16
 20
-2
 11
-7.6568542494924
 21
-2
  0
POLYLINE
  8
1
 66
1
  0
VERTEX
  8
1
 10
-26
 20
-2
  0
VERTEX
  8
1
 10
-26
 20
-12
  0
VERTEX
  8
1
 10
-24
 20
-12
  0
SEQEND
  8
1
  0
POLYLINE
  8
1
 66
1
  0
VERTEX
  8
1
 10
-34
 20
-18
  0
VERTEX
  8
1
 10
-34
 20
-7.68203497615275
  0
SEQEND
  8
1
  0
LINE
  8
1
 10
-44
 20
-2
 11
-39.6568542494924
 21
-2
  0
LINE
  8
1
 10
-28.3431457505076
 20
-2
 11
-24
 21
-2
  0
POLYLINE
  8
1
 70
1
 66
1
 40
0.5
 41
0.5
  0
VERTEX
  8
1
 10
39.75
 20
-2
 42
1
  0
VERTEX
  8
1
 10
40.25
 20
-2
 42
1
  0
SEQEND
  8
1
  0
LINE
  8
1
 10
16
 20
-2
 11
28
 21
-2
  0
POLYLINE
  8
1
 70
1
 66
1
 40
0.5
 41
0.5
  0
VERTEX
  8
1
 10
29.75
 20
18
 42
1
  0
VERTEX
  8
1
 10
30.25
 20
18
 42
1
  0
SEQEND
  8
1
  0
POLYLINE
  8
1
 66
1
  0
VERTEX
  8
1
 10
22
 20
14
  0
VERTEX
  8
1
 10
22
 20
18
  0
VERTEX
  8
1
 10
30
 20
18
  0
VERTEX
  8
1
 10
30
 20
16
  0
VERTEX
  8
1
 10
30
 20
18
  0
VERTEX
  8
1
 10
40
 20
18
  0
VERTEX
  8
1
 10
40
 20
-2
  0
SEQEND
  8
1
  0
POLYLINE
  8
1
 70
1
 66
1
 40
0.5
 41
0.5
  0
VERTEX
  8
1
 10
21.75
 20
-2
 42
1
  0
VERTEX
  8
1
 10
22.25
 20
-2
 42
1
  0
SEQEND
  8
1
  0
POLYLINE
  8
1
 70
1
 66
1
 40
0.5
 41
0.5
  0
VERTEX
  8
1
 10
-26.25
 20
-2
 42
1
  0
VERTEX
  8
1
 10
-25.75
 20
-2
 42
1
  0
SEQEND
  8
1
  0
POLYLINE
  8
1
 70
1
 66
1
 40
0.5
 41
0.5
  0
VERTEX
  8
1
 10
-12.25
 20
-2
 42
1
  0
VERTEX
  8
1
 10
-11.75
 20
-2
 42
1
  0
SEQEND
  8
1
  0
POLYLINE
  8
1
 66
1
  0
VERTEX
  8
1
 10
-14
 20
-12
  0
VERTEX
  8
1
 10
-12
 20
-12
  0
VERTEX
  8
1
 10
-12
 20
-2
  0
SEQEND
  8
1
  0
LINE
  8
1
 10
-12
 20
4
 11
-12
 21
-2
  0
LINE
  8
1
 10
-2
 20
0.320512820512818
 11
-2
 21
3.63422131949756
  0
POLYLINE
  8
1
 66
1
  0
VERTEX
  8
1
 10
-2
 20
3.63422131949758
  0
VERTEX
  8
1
 10
-7.65685424949225
 20
-2.0226329299948
  0
VERTEX
  8
1
 10
-2
 20
-7.67948717948725
  0
VERTEX
  8
1
 10
3.6568542494925
 20
-2.0226329299948
  0
VERTEX
  8
1
 10
-2
 20
3.63422131949758
  0
SEQEND
  8
1
  0
LINE
  8
1
 10
-10.2322330470336
 20
6.23223304703364
 11
-13.7677669529664
 21
9.76776695296637
  0
INSERT
  8
1
  2
LCA1
 10
-13.7677669529664
 20
9.76776695296637
 50
135
  0
CIRCLE
  8
1
 10
-12
 20
8
 40
4
  0
LINE
  8
1
 10
-24
 20
-12
 11
-20.4759962576611
 21
-12
  0
LINE
  8
1
 10
-18
 20
-12
 11
-14
 21
-12
  0
CIRCLE
  8
1
 10
-19.5
 20
-12
 40
1
  0
POLYLINE
  8
1
 66
1
  0
VERTEX
  8
1
 10
-20
 20
-14
  0
VERTEX
  8
1
 10
-18
 20
-12
  0
VERTEX
  8
1
 10
-20
 20
-10
  0
SEQEND
  8
1
  0
LINE
  8
1
 10
18.2928932188134
 20
7.5857864376269
 11
25.3639610306789
 21
4.75735931288072
  0
INSERT
  8
1
  2
LCA1
 10
25.3639610306789
 20
4.75735931288072
 50
-21.8014094863518
  0
LINE
  8
1
 10
22
 20
14
 11
22
 21
-2
  0
ARC
  8
1
 10
12
 20
6
 40
9
 50
340.528596800055
 51
19.4710505793386
  0
ARC
  8
1
 10
32
 20
6
 40
9
 50
160.52865870751
 51
199.47139531546
  0
POLYLINE
  8
1
 66
1
  0
VERTEX
  8
1
 10
-34
 20
3.6316735228321
  0
VERTEX
  8
1
 10
-39.6568542494924
 20
-2.02518072666027
  0
VERTEX
  8
1
 10
-34
 20
-7.68203497615275
  0
VERTEX
  8
1
 10
-28.3431457505076
 20
-2.02518072666027
  0
VERTEX
  8
1
 10
-34
 20
3.6316735228321
  0
SEQEND
  8
1
  0
POLYLINE
  8
1
 66
1
  0
VERTEX
  8
1
 10
-34
 20
3.6316735228321
  0
VERTEX
  8
1
 10
-39.6568542494924
 20
-2.02518072666027
  0
VERTEX
  8
1
 10
-34
 20
-7.68203497615275
  0
VERTEX
  8
1
 10
-28.3431457505076
 20
-2.02518072666027
  0
VERTEX
  8
1
 10
-34
 20
3.6316735228321
  0
SEQEND
  8
1
  0
LINE
  8
1
 10
-35.3786898982066
 20
-4.18202473438642
 11
-34
 21
-5.56071463259299
  0
LINE
  8
1
 10
-34
 20
-5.56071463259299
 11
-32.62135162219
 21
-4.182066254783
  0
LINE
  8
1
 10
-30.4999780630641
 20
-4.18203497615263
 11
-37.4999936699302
 21
-4.18203497615263
  0
LINE
  8
1
  6
DASHED
 10
-33.9999858664972
 20
-4.18203497615263
 11
-33.9999858664972
 21
3.6316735228321
  0
LINE
  8
1
 10
28
 20
16
 11
30
 21
12.5358983848622
  0
LINE
  8
1
 10
32
 20
16
 11
30
 21
12.5358983848622
  0
POLYLINE
  8
1
 66
1
  0
VERTEX
  8
1
 10
30
 20
-11
  0
VERTEX
  8
1
 10
28
 20
-10.5833333333333
  0
VERTEX
  8
1
 10
32
 20
-9.75
  0
VERTEX
  8
1
 10
28
 20
-8.91666666666675
  0
VERTEX
  8
1
 10
32
 20
-8.08333333333325
  0
VERTEX
  8
1
 10
28
 20
-7.25
  0
VERTEX
  8
1
 10
32
 20
-6.41666666666675
  0
VERTEX
  8
1
 10
30
 20
-6
  0
SEQEND
  8
1
  0
LINE
  8
1
 10
28
 20
6
 11
36
 21
6
  0
INSERT
  8
1
  2
LCA1
 10
36
 20
6
 50
0
  0
POLYLINE
  8
1
 66
1
  0
VERTEX
  8
1
 10
36
 20
10
  0
VERTEX
  8
1
 10
28
 20
10
  0
VERTEX
  8
1
 10
28
 20
2
  0
VERTEX
  8
1
 10
36
 20
2
  0
VERTEX
  8
1
 10
36
 20
10
  0
SEQEND
  8
1
  0
LINE
  8
1
 10
36
 20
-2
 11
34
 21
-2
  0
INSERT
  8
1
  2
LCBP1
 10
34
 20
-2
 50
-180
  0
LINE
  8
1
 10
28
 20
-2
 11
30
 21
-2
  0
INSERT
  8
1
  2
LCBP1
 10
30
 20
-2
 50
0
  0
POLYLINE
  8
1
 66
1
  0
VERTEX
  8
1
 10
36
 20
2
  0
VERTEX
  8
1
 10
28
 20
2
  0
VERTEX
  8
1
 10
28
 20
-6
  0
VERTEX
  8
1
 10
36
 20
-6
  0
VERTEX
  8
1
 10
36
 20
2
  0
SEQEND
  8
1
  0
POLYLINE
  8
1
 66
1
  0
VERTEX
  8
1
 10
32
 20
16
  0
VERTEX
  8
1
 10
28
 20
16
  0
VERTEX
  8
1
 10
28
 20
10
  0
VERTEX
  8
1
 10
32
 20
10
  0
VERTEX
  8
1
 10
32
 20
16
  0
SEQEND
  8
1
  0
POLYLINE
  8
1
 66
1
  0
VERTEX
  8
1
 10
30
 20
-11
  0
VERTEX
  8
1
 10
28
 20
-10.5833333333333
  0
VERTEX
  8
1
 10
32
 20
-9.75
  0
VERTEX
  8
1
 10
28
 20
-8.91666666666675
  0
VERTEX
  8
1
 10
32
 20
-8.08333333333325
  0
VERTEX
  8
1
 10
28
 20
-7.25
  0
VERTEX
  8
1
 10
32
 20
-6.41666666666675
  0
VERTEX
  8
1
 10
30
 20
-6
  0
SEQEND
  8
1
  0
POLYLINE
  8
1
 66
1
  0
VERTEX
  8
1
 10
16
 20
8
  0
VERTEX
  8
1
 10
8
 20
8
  0
VERTEX
  8
1
 10
8
 20
0
  0
VERTEX
  8
1
 10
16
 20
0
  0
VERTEX
  8
1
 10
16
 20
8
  0
SEQEND
  8
1
  0
LINE
  8
1
 10
8
 20
2
 11
10
 21
2
  0
INSERT
  8
1
  2
LCBP1
 10
10
 20
2
 50
0
  0
LINE
  8
1
 10
8
 20
6
 11
16
 21
6
  0
INSERT
  8
1
  2
LCA1
 10
16
 20
6
 50
0
  0
LINE
  8
1
 10
8
 20
-2
 11
10
 21
-2
  0
INSERT
  8
1
  2
LCBP1
 10
10
 20
-2
 50
0
  0
POLYLINE
  8
1
 66
1
  0
VERTEX
  8
1
 10
16
 20
0
  0
VERTEX
  8
1
 10
8
 20
0
  0
VERTEX
  8
1
 10
8
 20
-8
  0
VERTEX
  8
1
 10
16
 20
-8
  0
VERTEX
  8
1
 10
16
 20
0
  0
SEQEND
  8
1
  0
LINE
  8
1
 10
16
 20
-2
 11
8
 21
-6
  0
INSERT
  8
1
  2
LCA1
 10
8
 20
-6
 50
-153.434948822922
  0
LINE
  8
1
 10
8
 20
12
 11
12
 21
10
  0
POLYLINE
  8
1
 66
1
  0
VERTEX
  8
1
 10
12
 20
14
  0
VERTEX
  8
1
 10
8
 20
14
  0
VERTEX
  8
1
 10
8
 20
8
  0
VERTEX
  8
1
 10
12
 20
8
  0
VERTEX
  8
1
 10
12
 20
14
  0
SEQEND
  8
1
  0
LINE
  8
1
 10
15.5
 20
12
 11
15.5
 21
8
  0
LINE
  8
1
 10
16
 20
12
 11
13
 21
12
  0
LINE
  8
1
 10
13.5
 20
12
 11
13.5
 21
8
  0
LINE
  8
1
 10
12
 20
8
 11
16
 21
8
  0
POLYLINE
  8
1
 66
1
  0
VERTEX
  8
1
 10
10
 20
-13
  0
VERTEX
  8
1
 10
8
 20
-12.5833333333333
  0
VERTEX
  8
1
 10
12
 20
-11.75
  0
VERTEX
  8
1
 10
8
 20
-10.9166666666667
  0
VERTEX
  8
1
 10
12
 20
-10.0833333333333
  0
VERTEX
  8
1
 10
8
 20
-9.25
  0
VERTEX
  8
1
 10
12
 20
-8.41666666666675
  0
VERTEX
  8
1
 10
10
 20
-8
  0
SEQEND
  8
1
  0
LINE
  8
1
 10
-26.4425978826423
 20
5.27036371433004
 11
-17.5571264213402
 21
7.72971259368521
  0
INSERT
  8
1
  2
LCA1
 10
-17.5571264213402
 20
7.72971259368521
 50
15.4711922908485
  0
POLYLINE
  8
1
 66
1
  0
VERTEX
  8
1
 10
-21.9998889119004
 20
4.0000231433541
  0
VERTEX
  8
1
 10
-19.9998889119004
 20
4.4166898100208
  0
VERTEX
  8
1
 10
-23.9998889119004
 20
5.2500231433541
  0
VERTEX
  8
1
 10
-19.9998889119004
 20
6.08335647668745
  0
VERTEX
  8
1
 10
-23.9998889119004
 20
6.9166898100208
  0
VERTEX
  8
1
 10
-19.9998889119004
 20
7.7500231433541
  0
VERTEX
  8
1
 10
-23.9998889119004
 20
8.5833564766874
  0
VERTEX
  8
1
 10
-21.9998889119004
 20
9.0000231433541
  0
SEQEND
  8
1
  0
POLYLINE
  8
1
 66
1
  0
VERTEX
  8
1
 10
-24
 20
3
  0
VERTEX
  8
1
 10
-26
 20
2
  0
VERTEX
  8
1
 10
-24
 20
1
  0
SEQEND
  8
1
  0
POLYLINE
  8
1
  6
DOT
 66
1
  0
VERTEX
  8
1
 10
-22
 20
-4
  0
VERTEX
  8
1
 10
-22
 20
-8
  0
VERTEX
  8
1
 10
-14
 20
-8
  0
VERTEX
  8
1
 10
-14
 20
-4
  0
VERTEX
  8
1
 10
-16
 20
-2
  0
SEQEND
  8
1
  0
POLYLINE
  8
1
 66
1
  0
VERTEX
  8
1
 10
-24
 20
-4
  0
VERTEX
  8
1
 10
-16
 20
-4
  0
VERTEX
  8
1
 10
-16
 20
4
  0
VERTEX
  8
1
 10
-24
 20
4
  0
VERTEX
  8
1
 10
-24
 20
-4
  0
SEQEND
  8
1
  0
LINE
  8
1
 10
-16
 20
-2
 11
-24
 21
-2
  0
INSERT
  8
1
  2
LCA1
 10
-24
 20
-2
 50
-180
  0
INSERT
  8
1
  2
LCA1R
 10
-16
 20
-2
 50
-180
  0
CIRCLE
  8
CONNECTIONS
 10
-48
 20
-2
 40
0
  0
CIRCLE
  8
CONNECTIONS
 10
4
 20
-22
 40
0
  0
CIRCLE
  8
CONNECTIONS
 10
48
 20
-2
 40
0
  0
CIRCLE
  8
CONNECTIONS
 10
10
 20
14
 40
0
  0
ENDBLK
  8
0
  0
ENDSEC
  0
SECTION
  2
ENTITIES
  0
INSERT
  8
1
  2
B5691_00991764
 10
48
 20
22
  0
ENDSEC
  0
EOF
