  0
SECTION
  2
HEADER
  9
$LIMMIN
 10
0
 20
0
  9
$LIMMAX
 10
52.5
 20
74.25
  9
$EXTMIN
 10
0
 20
60
  9
$EXTMAX
 10
0
 20
40
  0
ENDSEC
  0
SECTION
  2
TABLES
  0
TABLE
  2
LTYPE
 70
9
  0
LTYPE
  2
CONTINUOUS
 70
64
  3
Solid line
 72
65
 73
0
 40
0
  0
LTYPE
  2
DASHED
 70
64
  3
__ __ __ __ __ __ __ __ __
 72
65
 73
2
 40
0.75
 49
0.5
 49
-0.25
  0
LTYPE
  2
DOT
 70
64
  3
...........................
 72
65
 73
2
 40
0.25
 49
0
 49
-0.25
  0
LTYPE
  2
DASHDOT
 70
64
  3
__ . __ . __ . __ . __ . __ . 
 72
65
 73
4
 40
1
 49
0.5
 49
-0.25
 49
0
 49
-0.25
  0
ENDTAB
  0
TABLE
  2
LAYER
 70
10
  0
LAYER
  2
1
 70
0
 62
7
  6
CONTINUOUS
  0
LAYER
  2
CONNECTIONS
 70
0
 62
-7
  6
CONTINUOUS
  0
ENDTAB
  0
ENDSEC
  0
SECTION
  2
BLOCKS
  0
BLOCK
  8
0
  2
TRICON
 70
0
 10
0
 20
0
  0
POLYLINE
  8
1
 70
1
 66
1
 40
0.5
 41
0.5
  0
VERTEX
  8
1
 10
-0.25
 20
0
 42
1
  0
VERTEX
  8
1
 10
0.25
 20
0
 42
1
  0
SEQEND
  8
1
  0
ENDBLK
  8
0
  0
BLOCK
  8
0
  2
TRICONSMALL
 70
0
 10
0
 20
0
  0
POLYLINE
  8
1
 70
1
 66
1
 40
0.25
 41
0.25
  0
VERTEX
  8
1
 10
-0.125
 20
0
 42
1
  0
VERTEX
  8
1
 10
0.125
 20
0
 42
1
  0
SEQEND
  8
1
  0
ENDBLK
  8
0
  0
BLOCK
  8
0
  2
TRICONCIRCLE
 70
0
 10
0
 20
0
  0
CIRCLE
  8
1
 10
0
 20
0
 40
0.5
  0
ENDBLK
  8
0
  0
BLOCK
  8
0
  2
LCBP0
 70
0
 10
0
 20
0
  0
LINE
  8
1
 10
0
 20
-0.46875
 11
0
 21
0.46875
  0
ENDBLK
  8
0
  0
BLOCK
  8
0
  2
LCBP1
 70
0
 10
0
 20
0
  0
LINE
  8
1
 10
0
 20
-0.625
 11
0
 21
0.625
  0
ENDBLK
  8
0
  0
BLOCK
  8
0
  2
LCBP2
 70
0
 10
0
 20
0
  0
LINE
  8
1
 10
0
 20
-0.9375
 11
0
 21
0.9375
  0
ENDBLK
  8
0
  0
BLOCK
  8
0
  2
LCA1
 70
0
 10
0
 20
0
  0
SOLID
  8
1
 62
7 
 10
0
 20
0
 11
-1.4
 21
-0.275
 12
-1.4
 22
0.275
 13
-1.4
 23
0.275
  0
ENDBLK
  8
0
  0
BLOCK
  8
0
  2
LCA2
 70
0
 10
0
 20
0
  0
SOLID
  8
1
 62
7 
 10
0
 20
0
 11
-1.65
 21
-0.525
 12
-1.65
 22
0.525
 13
-1.65
 23
0.525
  0
ENDBLK
  8
0
  0
BLOCK
  8
0
  2
LCA3
 70
0
 10
0
 20
0
  0
SOLID
  8
1
 62
7 
 10
0
 20
0
 11
-2.15
 21
-1.15
 12
-2.15
 22
1.15
 13
-2.15
 23
1.15
  0
ENDBLK
  8
0
  0
BLOCK
  8
0
  2
LCA1R
 70
0
 10
0
 20
0
  0
SOLID
  8
1
 62
7 
 10
0
 20
0
 11
1.4
 21
-0.275
 12
1.4
 22
0.275
 13
1.4
 23
0.275
  0
ENDBLK
  8
0
  0
BLOCK
  8
0
  2
LCA2R
 70
0
 10
0
 20
0
  0
SOLID
  8
1
 62
7 
 10
0
 20
0
 11
1.65
 21
-0.525
 12
1.65
 22
0.525
 13
1.65
 23
0.525
  0
ENDBLK
  8
0
  0
BLOCK
  8
0
  2
LCA3R
 70
0
 10
0
 20
0
  0
SOLID
  8
1
 62
7 
 10
0
 20
0
 11
2.15
 21
-1.15
 12
2.15
 22
1.15
 13
2.15
 23
1.15
  0
ENDBLK
  8
0
  0
BLOCK
  8
0
  2
B5392_00991756
 70
0
 10
0
 20
0
  0
POLYLINE
  8
1
  6
DASHDOT
 66
1
  0
VERTEX
  8
1
 10
-26
 20
20
  0
VERTEX
  8
1
 10
26
 20
20
  0
VERTEX
  8
1
 10
26
 20
-16
  0
VERTEX
  8
1
 10
-26
 20
-16
  0
VERTEX
  8
1
 10
-26
 20
20
  0
SEQEND
  8
1
  0
LINE
  8
1
 10
26
 20
0
 11
30
 21
0
  0
LINE
  8
1
 10
-4
 20
-16
 11
-4
 21
-20
  0
LINE
  8
1
 10
-26
 20
-4
 11
-30
 21
-4
  0
LINE
  8
1
 10
-30
 20
0
 11
-26
 21
0
  0
TEXT
  8
1
 40
2.475
 41
0.75
  1
1
  7
STANDARD
 72
2
 10
-26.4655974188913
 20
1.88445042088071
 11
-26.4655974188913
 21
1.88445042088071
  0
TEXT
  8
1
 40
2.475
 41
0.75
  1
3
  7
STANDARD
 73
2
 10
-29.9345238095238
 20
-7.61904761904762
 11
-29.9345238095238
 21
-7.61904761904762
  0
TEXT
  8
1
 40
2.475
 41
0.75
  1
2
  7
STANDARD
 73
2
 10
27.1584699453552
 20
3.01639344262298
 11
27.1584699453552
 21
3.01639344262298
  0
LINE
  8
1
 10
14
 20
0
 11
26
 21
0
  0
POLYLINE
  8
1
 66
1
  0
VERTEX
  8
1
 10
4
 20
0
  0
VERTEX
  8
1
 10
4
 20
-10
  0
VERTEX
  8
1
 10
6
 20
-10
  0
SEQEND
  8
1
  0
LINE
  8
1
 10
-4
 20
-5.68434343434344
 11
-4
 21
-16
  0
LINE
  8
1
 10
-14
 20
0
 11
-9.65685424949236
 21
0
  0
LINE
  8
1
 10
-22
 20
-4
 11
-26
 21
-4
  0
LINE
  8
1
 10
-26
 20
0
 11
-22
 21
0
  0
LINE
  8
1
 10
1.6568542494924
 20
0
 11
6
 21
0
  0
POLYLINE
  8
1
 70
1
 66
1
 40
0.5
 41
0.5
  0
VERTEX
  8
1
 10
3.75
 20
0
 42
1
  0
VERTEX
  8
1
 10
4.25
 20
0
 42
1
  0
SEQEND
  8
1
  0
POLYLINE
  8
1
 70
1
 66
1
 40
0.5
 41
0.5
  0
VERTEX
  8
1
 10
17.75
 20
0
 42
1
  0
VERTEX
  8
1
 10
18.25
 20
0
 42
1
  0
SEQEND
  8
1
  0
POLYLINE
  8
1
 66
1
  0
VERTEX
  8
1
 10
16
 20
-10
  0
VERTEX
  8
1
 10
18
 20
-10
  0
VERTEX
  8
1
 10
18
 20
0
  0
SEQEND
  8
1
  0
LINE
  8
1
 10
18
 20
6
 11
18
 21
0
  0
LINE
  8
1
 10
19.7677669529664
 20
8.23223304703363
 11
16.2322330470336
 21
11.7677669529664
  0
INSERT
  8
1
  2
LCA1
 10
16.2322330470336
 20
11.7677669529664
 50
135
  0
CIRCLE
  8
1
 10
18
 20
10
 40
4
  0
LINE
  8
1
 10
6
 20
-10
 11
9.52400270453009
 21
-10.0027045300879
  0
LINE
  8
1
 10
12
 20
-10
 11
16
 21
-10
  0
CIRCLE
  8
1
 10
10.5
 20
-10
 40
1
  0
POLYLINE
  8
1
 66
1
  0
VERTEX
  8
1
 10
10
 20
-12
  0
VERTEX
  8
1
 10
12
 20
-10
  0
VERTEX
  8
1
 10
10
 20
-8
  0
SEQEND
  8
1
  0
POLYLINE
  8
1
 66
1
  0
VERTEX
  8
1
 10
-14
 20
10
  0
VERTEX
  8
1
 10
-22
 20
10
  0
VERTEX
  8
1
 10
-22
 20
2
  0
VERTEX
  8
1
 10
-14
 20
2
  0
VERTEX
  8
1
 10
-14
 20
10
  0
SEQEND
  8
1
  0
LINE
  8
1
 10
-22
 20
4
 11
-20
 21
4
  0
INSERT
  8
1
  2
LCBP1
 10
-20
 20
4
 50
0
  0
LINE
  8
1
 10
-22
 20
8
 11
-14
 21
8
  0
INSERT
  8
1
  2
LCA1
 10
-14
 20
8
 50
0
  0
LINE
  8
1
 10
-22
 20
0
 11
-20
 21
0
  0
INSERT
  8
1
  2
LCBP1
 10
-20
 20
0
 50
0
  0
POLYLINE
  8
1
 66
1
  0
VERTEX
  8
1
 10
-14
 20
2
  0
VERTEX
  8
1
 10
-22
 20
2
  0
VERTEX
  8
1
 10
-22
 20
-6
  0
VERTEX
  8
1
 10
-14
 20
-6
  0
VERTEX
  8
1
 10
-14
 20
2
  0
SEQEND
  8
1
  0
LINE
  8
1
 10
-14
 20
0
 11
-22
 21
-4
  0
INSERT
  8
1
  2
LCA1
 10
-22
 20
-4
 50
-153.434948822922
  0
LINE
  8
1
 10
-18
 20
13
 11
-16
 21
13
  0
LINE
  8
1
 10
-21.5
 20
16
 11
-18.5
 21
16
  0
LINE
  8
1
 10
-19
 20
14.25
 11
-19
 21
16
  0
POLYLINE
  8
1
 66
1
  0
VERTEX
  8
1
 10
-19
 20
14.25
  0
VERTEX
  8
1
 10
-19
 20
13.75
  0
VERTEX
  8
1
 10
-20.2990381056767
 20
13
  0
VERTEX
  8
1
 10
-19
 20
12.25
  0
VERTEX
  8
1
 10
-19
 20
11.75
  0
SEQEND
  8
1
  0
LINE
  8
1
 10
-19
 20
10
 11
-19
 21
11.75
  0
LINE
  8
1
 10
-21
 20
10
 11
-21
 21
16
  0
LINE
  8
1
  6
DASHED
 10
-3.99998586649716
 20
-2.18434343434343
 11
-3.99998586649716
 21
5.6293650646413
  0
LINE
  8
1
 10
-5.37868989820656
 20
-2.18433319257722
 11
-4
 21
-3.56302309078379
  0
LINE
  8
1
 10
-4
 20
-3.56302309078379
 11
-2.62135162219
 21
-2.1843747129738
  0
LINE
  8
1
 10
-0.499978063064058
 20
-2.18434343434343
 11
-7.49999366993025
 21
-2.18434343434343
  0
POLYLINE
  8
1
 66
1
  0
VERTEX
  8
1
 10
-4
 20
5.6293650646413
  0
VERTEX
  8
1
 10
-9.65685424949237
 20
-0.0274891848510777
  0
VERTEX
  8
1
 10
-4
 20
-5.6843434343435
  0
VERTEX
  8
1
 10
1.6568542494925
 20
-0.0274891848510777
  0
VERTEX
  8
1
 10
-4
 20
5.6293650646413
  0
SEQEND
  8
1
  0
LINE
  8
1
 10
3.55740211735771
 20
7.27036371433004
 11
12.4428735786598
 21
9.72971259368521
  0
INSERT
  8
1
  2
LCA1
 10
12.4428735786598
 20
9.72971259368521
 50
15.4711922908485
  0
POLYLINE
  8
1
 66
1
  0
VERTEX
  8
1
 10
8.00011108809962
 20
6.0000231433541
  0
VERTEX
  8
1
 10
10.0001110880996
 20
6.4166898100208
  0
VERTEX
  8
1
 10
6.00011108809962
 20
7.2500231433541
  0
VERTEX
  8
1
 10
10.0001110880996
 20
8.08335647668745
  0
VERTEX
  8
1
 10
6.00011108809962
 20
8.9166898100208
  0
VERTEX
  8
1
 10
10.0001110880996
 20
9.7500231433541
  0
VERTEX
  8
1
 10
6.00011108809962
 20
10.5833564766874
  0
VERTEX
  8
1
 10
8.00011108809962
 20
11.0000231433541
  0
SEQEND
  8
1
  0
POLYLINE
  8
1
 66
1
  0
VERTEX
  8
1
 10
6
 20
5
  0
VERTEX
  8
1
 10
4
 20
4
  0
VERTEX
  8
1
 10
6
 20
3
  0
SEQEND
  8
1
  0
POLYLINE
  8
1
  6
DOT
 66
1
  0
VERTEX
  8
1
 10
8
 20
-2
  0
VERTEX
  8
1
 10
8
 20
-6
  0
VERTEX
  8
1
 10
16
 20
-6
  0
VERTEX
  8
1
 10
16
 20
-2
  0
VERTEX
  8
1
 10
14
 20
0
  0
SEQEND
  8
1
  0
POLYLINE
  8
1
 66
1
  0
VERTEX
  8
1
 10
6
 20
-2
  0
VERTEX
  8
1
 10
14
 20
-2
  0
VERTEX
  8
1
 10
14
 20
6
  0
VERTEX
  8
1
 10
6
 20
6
  0
VERTEX
  8
1
 10
6
 20
-2
  0
SEQEND
  8
1
  0
LINE
  8
1
 10
14
 20
0
 11
6
 21
0
  0
INSERT
  8
1
  2
LCA1
 10
6
 20
0
 50
-180
  0
INSERT
  8
1
  2
LCA1R
 10
14
 20
0
 50
-180
  0
CIRCLE
  8
CONNECTIONS
 10
30
 20
0
 40
0
  0
CIRCLE
  8
CONNECTIONS
 10
-30
 20
0
 40
0
  0
CIRCLE
  8
CONNECTIONS
 10
-30
 20
-4
 40
0
  0
ENDBLK
  8
0
  0
ENDSEC
  0
SECTION
  2
ENTITIES
  0
INSERT
  8
1
  2
B5392_00991756
 10
30
 20
20
  0
ENDSEC
  0
EOF
