  0
SECTION
  2
HEADER
  9
$LIMMIN
 10
0
 20
0
  9
$LIMMAX
 10
52.5
 20
74.25
  9
$EXTMIN
 10
0
 20
33.2127811113993
  9
$EXTMAX
 10
0
 20
10.5
  0
ENDSEC
  0
SECTION
  2
TABLES
  0
TABLE
  2
LTYPE
 70
9
  0
LTYPE
  2
CONTINUOUS
 70
64
  3
Solid line
 72
65
 73
0
 40
0
  0
LTYPE
  2
DASHED
 70
64
  3
__ __ __ __ __ __ __ __ __
 72
65
 73
2
 40
0.75
 49
0.5
 49
-0.25
  0
LTYPE
  2
DOT
 70
64
  3
...........................
 72
65
 73
2
 40
0.25
 49
0
 49
-0.25
  0
LTYPE
  2
DASHDOT
 70
64
  3
__ . __ . __ . __ . __ . __ . 
 72
65
 73
4
 40
1
 49
0.5
 49
-0.25
 49
0
 49
-0.25
  0
ENDTAB
  0
TABLE
  2
LAYER
 70
10
  0
LAYER
  2
1
 70
0
 62
7
  6
CONTINUOUS
  0
LAYER
  2
CONNECTIONS
 70
0
 62
-7
  6
CONTINUOUS
  0
ENDTAB
  0
ENDSEC
  0
SECTION
  2
BLOCKS
  0
BLOCK
  8
0
  2
TRICON
 70
0
 10
0
 20
0
  0
POLYLINE
  8
1
 70
1
 66
1
 40
0.5
 41
0.5
  0
VERTEX
  8
1
 10
-0.25
 20
0
 42
1
  0
VERTEX
  8
1
 10
0.25
 20
0
 42
1
  0
SEQEND
  8
1
  0
ENDBLK
  8
0
  0
BLOCK
  8
0
  2
TRICONSMALL
 70
0
 10
0
 20
0
  0
POLYLINE
  8
1
 70
1
 66
1
 40
0.25
 41
0.25
  0
VERTEX
  8
1
 10
-0.125
 20
0
 42
1
  0
VERTEX
  8
1
 10
0.125
 20
0
 42
1
  0
SEQEND
  8
1
  0
ENDBLK
  8
0
  0
BLOCK
  8
0
  2
TRICONCIRCLE
 70
0
 10
0
 20
0
  0
CIRCLE
  8
1
 10
0
 20
0
 40
0.5
  0
ENDBLK
  8
0
  0
BLOCK
  8
0
  2
LCBP0
 70
0
 10
0
 20
0
  0
LINE
  8
1
 10
0
 20
-0.46875
 11
0
 21
0.46875
  0
ENDBLK
  8
0
  0
BLOCK
  8
0
  2
LCBP1
 70
0
 10
0
 20
0
  0
LINE
  8
1
 10
0
 20
-0.625
 11
0
 21
0.625
  0
ENDBLK
  8
0
  0
BLOCK
  8
0
  2
LCBP2
 70
0
 10
0
 20
0
  0
LINE
  8
1
 10
0
 20
-0.9375
 11
0
 21
0.9375
  0
ENDBLK
  8
0
  0
BLOCK
  8
0
  2
LCA1
 70
0
 10
0
 20
0
  0
SOLID
  8
1
 62
7 
 10
0
 20
0
 11
-1.4
 21
-0.275
 12
-1.4
 22
0.275
 13
-1.4
 23
0.275
  0
ENDBLK
  8
0
  0
BLOCK
  8
0
  2
LCA2
 70
0
 10
0
 20
0
  0
SOLID
  8
1
 62
7 
 10
0
 20
0
 11
-1.65
 21
-0.525
 12
-1.65
 22
0.525
 13
-1.65
 23
0.525
  0
ENDBLK
  8
0
  0
BLOCK
  8
0
  2
LCA3
 70
0
 10
0
 20
0
  0
SOLID
  8
1
 62
7 
 10
0
 20
0
 11
-2.15
 21
-1.15
 12
-2.15
 22
1.15
 13
-2.15
 23
1.15
  0
ENDBLK
  8
0
  0
BLOCK
  8
0
  2
LCA1R
 70
0
 10
0
 20
0
  0
SOLID
  8
1
 62
7 
 10
0
 20
0
 11
1.4
 21
-0.275
 12
1.4
 22
0.275
 13
1.4
 23
0.275
  0
ENDBLK
  8
0
  0
BLOCK
  8
0
  2
LCA2R
 70
0
 10
0
 20
0
  0
SOLID
  8
1
 62
7 
 10
0
 20
0
 11
1.65
 21
-0.525
 12
1.65
 22
0.525
 13
1.65
 23
0.525
  0
ENDBLK
  8
0
  0
BLOCK
  8
0
  2
LCA3R
 70
0
 10
0
 20
0
  0
SOLID
  8
1
 62
7 
 10
0
 20
0
 11
2.15
 21
-1.15
 12
2.15
 22
1.15
 13
2.15
 23
1.15
  0
ENDBLK
  8
0
  0
BLOCK
  8
0
  2
B2799_00991712
 70
0
 10
0
 20
0
  0
POLYLINE
  8
1
 66
1
  0
VERTEX
  8
1
 10
-16.6063903172811
 20
5.25
  0
VERTEX
  8
1
 10
-6.60639031728109
 20
5.25
  0
VERTEX
  8
1
 10
-6.60639031728109
 20
-4.75
  0
VERTEX
  8
1
 10
-16.6063903172811
 20
-4.75
  0
VERTEX
  8
1
 10
-16.6063903172811
 20
5.25
  0
SEQEND
  8
1
  0
LINE
  8
1
 10
-6.60639031728109
 20
0.249999999999999
 11
-2.00639031728109
 21
0.249999999999999
  0
LINE
  8
1
 10
-6.60639031728109
 20
-3.75
 11
-2.00639031728109
 21
-3.75
  0
LINE
  8
1
 10
-2.10639031728109
 20
-3.75
 11
-2.00639031728108
 21
-3.75
  0
CIRCLE
  8
1
 10
-1.60639031728109
 20
-3.75
 40
0.4
  0
CIRCLE
  8
1
 10
-1.60639031728109
 20
0.249999999999999
 40
0.4
  0
TEXT
  8
1
 40
1.8
 41
0.75
  1
~/+/-
  7
STANDARD
 10
9.79667695363363
 20
-0.85
  0
TEXT
  8
1
 40
1.8
 41
0.75
  1
~/-/+
  7
STANDARD
 10
9.79667695363363
 20
-4.35
  0
TEXT
  8
1
 40
1.8
 41
0.75
  1
BK
  7
STANDARD
 10
-6.60639031728109
 20
-3.30052051544189
  0
TEXT
  8
1
 40
1.8
 41
0.75
  1
BK
  7
STANDARD
 10
-6.60639031728109
 20
0.699479484558105
  0
LINE
  8
1
 10
-10.1063903172811
 20
0.249999999999999
 11
-9.60639031728109
 21
0.249999999999999
  0
LINE
  8
1
 10
-14.1063903172811
 20
0.249999999999999
 11
-14.6063903172811
 21
0.249999999999999
  0
ARC
  8
1
 10
-10.6063903172811
 20
0.249999999999999
 40
0.5
 50
360
 51
180
  0
ARC
  8
1
 10
-11.6063903172811
 20
0.249999999999999
 40
0.5
 50
360
 51
180
  0
ARC
  8
1
 10
-12.6063903172811
 20
0.249999999999999
 40
0.5
 50
360
 51
180
  0
ARC
  8
1
 10
-13.6063903172811
 20
0.249999999999999
 40
0.5
 50
360
 51
180
  0
LINE
  8
1
  6
DOT
 10
-10.6063903172811
 20
-1.75
 11
-9.00638279748762
 21
-1.75
  0
LINE
  8
1
 10
-12.8063903172811
 20
-0.949999999999999
 11
-12.8063903172811
 21
-2.55
  0
LINE
  8
1
 10
-11.4063903172811
 20
-0.949999999999999
 11
-11.4063903172811
 21
-2.55
  0
POLYLINE
  8
1
 66
1
  0
VERTEX
  8
1
 10
-12.1063903172811
 20
-0.25
  0
VERTEX
  8
1
 10
-13.6063903172811
 20
-1.75
  0
VERTEX
  8
1
 10
-12.1063903172811
 20
-3.25
  0
VERTEX
  8
1
 10
-10.6063903172811
 20
-1.75
  0
VERTEX
  8
1
 10
-12.1063903172811
 20
-0.25
  0
SEQEND
  8
1
  0
LINE
  8
1
 10
4.39360968271891
 20
-3.75
 11
9.39360968271891
 21
-3.75
  0
LINE
  8
1
 10
4.39360968271891
 20
0.249999999999999
 11
9.39360968271891
 21
0.249999999999999
  0
LINE
  8
1
 10
0.393609682718913
 20
0.249999999999999
 11
-1.10639031728109
 21
0.249999999999999
  0
TEXT
  8
1
 40
1.125
 41
0.75
  1
L
  7
STANDARD
 72
1
 10
3.60707569122314
 20
1.15592463811239
 11
3.60707569122314
 21
1.15592463811239
  0
TEXT
  8
1
 40
1.8
 41
0.75
  1
R
  7
STANDARD
 72
1
 10
1.89360968271891
 20
1.15
 11
1.89360968271891
 21
1.15
  0
POLYLINE
  8
1
 66
1
  0
VERTEX
  8
1
 10
0.393609682718913
 20
0.75
  0
VERTEX
  8
1
 10
4.39360968271891
 20
0.75
  0
VERTEX
  8
1
 10
4.39360968271891
 20
-0.25
  0
VERTEX
  8
1
 10
0.393609682718913
 20
-0.25
  0
VERTEX
  8
1
 10
0.393609682718913
 20
0.75
  0
SEQEND
  8
1
  0
LINE
  8
1
 10
0.393609682718913
 20
-3.75
 11
-1.10639031728109
 21
-3.75
  0
TEXT
  8
1
 40
1.125
 41
0.75
  1
L
  7
STANDARD
 72
1
 10
3.60707569122314
 20
-2.84407536188761
 11
3.60707569122314
 21
-2.84407536188761
  0
TEXT
  8
1
 40
1.8
 41
0.75
  1
R
  7
STANDARD
 72
1
 10
1.89360968271891
 20
-2.85
 11
1.89360968271891
 21
-2.85
  0
POLYLINE
  8
1
 66
1
  0
VERTEX
  8
1
 10
0.393609682718913
 20
-3.25
  0
VERTEX
  8
1
 10
4.39360968271891
 20
-3.25
  0
VERTEX
  8
1
 10
4.39360968271891
 20
-4.25
  0
VERTEX
  8
1
 10
0.393609682718913
 20
-4.25
  0
VERTEX
  8
1
 10
0.393609682718913
 20
-3.25
  0
SEQEND
  8
1
  0
LINE
  8
1
 10
-8.60639031728109
 20
-3.75
 11
-6.60639031728109
 21
-3.75
  0
LINE
  8
1
 10
-8.60639031728109
 20
0.249999999999999
 11
-6.60639031728109
 21
0.249999999999999
  0
LINE
  8
1
 10
-9.60639031728109
 20
-0.250000000000001
 11
-8.60639031728109
 21
-2.75
  0
LINE
  8
1
 10
-8.60639031728109
 20
-0.750000000000001
 11
-8.60639031728109
 21
0.249999999999999
  0
LINE
  8
1
 10
-8.60639031728109
 20
-2.75
 11
-8.60639031728109
 21
-3.75
  0
ENDBLK
  8
0
  0
ENDSEC
  0
SECTION
  2
ENTITIES
  0
INSERT
  8
1
  2
B2799_00991712
 10
16.6063903172811
 20
5.25
  0
ENDSEC
  0
EOF
