  0
SECTION
  2
HEADER
  9
$LIMMIN
 10
0
 20
0
  9
$LIMMAX
 10
52.5
 20
74.25
  9
$EXTMIN
 10
0
 20
31.4658195177714
  9
$EXTMAX
 10
0
 20
11.9999997615814
  0
ENDSEC
  0
SECTION
  2
TABLES
  0
TABLE
  2
LTYPE
 70
9
  0
LTYPE
  2
CONTINUOUS
 70
64
  3
Solid line
 72
65
 73
0
 40
0
  0
LTYPE
  2
DASHED
 70
64
  3
__ __ __ __ __ __ __ __ __
 72
65
 73
2
 40
0.75
 49
0.5
 49
-0.25
  0
LTYPE
  2
DOT
 70
64
  3
...........................
 72
65
 73
2
 40
0.25
 49
0
 49
-0.25
  0
LTYPE
  2
DASHDOT
 70
64
  3
__ . __ . __ . __ . __ . __ . 
 72
65
 73
4
 40
1
 49
0.5
 49
-0.25
 49
0
 49
-0.25
  0
ENDTAB
  0
TABLE
  2
LAYER
 70
10
  0
LAYER
  2
1
 70
0
 62
7
  6
CONTINUOUS
  0
LAYER
  2
CONNECTIONS
 70
0
 62
-7
  6
CONTINUOUS
  0
ENDTAB
  0
ENDSEC
  0
SECTION
  2
BLOCKS
  0
BLOCK
  8
0
  2
TRICON
 70
0
 10
0
 20
0
  0
POLYLINE
  8
1
 70
1
 66
1
 40
0.5
 41
0.5
  0
VERTEX
  8
1
 10
-0.25
 20
0
 42
1
  0
VERTEX
  8
1
 10
0.25
 20
0
 42
1
  0
SEQEND
  8
1
  0
ENDBLK
  8
0
  0
BLOCK
  8
0
  2
TRICONSMALL
 70
0
 10
0
 20
0
  0
POLYLINE
  8
1
 70
1
 66
1
 40
0.25
 41
0.25
  0
VERTEX
  8
1
 10
-0.125
 20
0
 42
1
  0
VERTEX
  8
1
 10
0.125
 20
0
 42
1
  0
SEQEND
  8
1
  0
ENDBLK
  8
0
  0
BLOCK
  8
0
  2
TRICONCIRCLE
 70
0
 10
0
 20
0
  0
CIRCLE
  8
1
 10
0
 20
0
 40
0.5
  0
ENDBLK
  8
0
  0
BLOCK
  8
0
  2
LCBP0
 70
0
 10
0
 20
0
  0
LINE
  8
1
 10
0
 20
-0.46875
 11
0
 21
0.46875
  0
ENDBLK
  8
0
  0
BLOCK
  8
0
  2
LCBP1
 70
0
 10
0
 20
0
  0
LINE
  8
1
 10
0
 20
-0.625
 11
0
 21
0.625
  0
ENDBLK
  8
0
  0
BLOCK
  8
0
  2
LCBP2
 70
0
 10
0
 20
0
  0
LINE
  8
1
 10
0
 20
-0.9375
 11
0
 21
0.9375
  0
ENDBLK
  8
0
  0
BLOCK
  8
0
  2
LCA1
 70
0
 10
0
 20
0
  0
SOLID
  8
1
 62
7 
 10
0
 20
0
 11
-1.4
 21
-0.275
 12
-1.4
 22
0.275
 13
-1.4
 23
0.275
  0
ENDBLK
  8
0
  0
BLOCK
  8
0
  2
LCA2
 70
0
 10
0
 20
0
  0
SOLID
  8
1
 62
7 
 10
0
 20
0
 11
-1.65
 21
-0.525
 12
-1.65
 22
0.525
 13
-1.65
 23
0.525
  0
ENDBLK
  8
0
  0
BLOCK
  8
0
  2
LCA3
 70
0
 10
0
 20
0
  0
SOLID
  8
1
 62
7 
 10
0
 20
0
 11
-2.15
 21
-1.15
 12
-2.15
 22
1.15
 13
-2.15
 23
1.15
  0
ENDBLK
  8
0
  0
BLOCK
  8
0
  2
LCA1R
 70
0
 10
0
 20
0
  0
SOLID
  8
1
 62
7 
 10
0
 20
0
 11
1.4
 21
-0.275
 12
1.4
 22
0.275
 13
1.4
 23
0.275
  0
ENDBLK
  8
0
  0
BLOCK
  8
0
  2
LCA2R
 70
0
 10
0
 20
0
  0
SOLID
  8
1
 62
7 
 10
0
 20
0
 11
1.65
 21
-0.525
 12
1.65
 22
0.525
 13
1.65
 23
0.525
  0
ENDBLK
  8
0
  0
BLOCK
  8
0
  2
LCA3R
 70
0
 10
0
 20
0
  0
SOLID
  8
1
 62
7 
 10
0
 20
0
 11
2.15
 21
-1.15
 12
2.15
 22
1.15
 13
2.15
 23
1.15
  0
ENDBLK
  8
0
  0
BLOCK
  8
0
  2
B2839_00991707
 70
0
 10
0
 20
0
  0
POLYLINE
  8
1
 66
1
  0
VERTEX
  8
1
 10
-15.7329096794128
 20
4.00000031789144
  0
VERTEX
  8
1
 10
-5.73290967941284
 20
4.00000031789144
  0
VERTEX
  8
1
 10
-5.73290967941284
 20
-5.99999968210856
  0
VERTEX
  8
1
 10
-15.7329096794128
 20
-5.99999968210856
  0
VERTEX
  8
1
 10
-15.7329096794128
 20
4.00000031789144
  0
SEQEND
  8
1
  0
LINE
  8
1
 10
-5.73290967941284
 20
3.00000031789144
 11
-1.13290967941284
 21
3.00000031789144
  0
LINE
  8
1
 10
-5.73290967941284
 20
-0.999999682108561
 11
-1.13290967941284
 21
-0.999999682108561
  0
LINE
  8
1
 10
-1.23290967941284
 20
-0.999999682108561
 11
-1.13290967941284
 21
-0.999999682108561
  0
CIRCLE
  8
1
 10
-0.732909679412842
 20
-0.999999682108561
 40
0.4
  0
CIRCLE
  8
1
 10
-0.732909679412842
 20
3.00000031789144
 40
0.4
  0
TEXT
  8
1
 40
1.8
 41
0.75
  1
BU
  7
STANDARD
 10
-5.73290967941284
 20
-0.550520197550456
  0
TEXT
  8
1
 40
1.8
 41
0.75
  1
BN
  7
STANDARD
 10
-5.73290967941284
 20
3.44947980244954
  0
TEXT
  8
1
 40
1.8
 41
0.75
  1
~/+
  7
STANDARD
 10
10.6701575915019
 20
1.90000031789144
  0
TEXT
  8
1
 40
1.8
 41
0.75
  1
~/-
  7
STANDARD
 10
10.6701575915019
 20
-1.59999968210856
  0
LINE
  8
1
 10
-9.23290967941284
 20
-1.49999968210856
 11
-8.73290967941284
 21
-1.49999968210856
  0
LINE
  8
1
 10
-13.2329096794128
 20
-1.49999968210856
 11
-13.7329096794128
 21
-1.49999968210856
  0
ARC
  8
1
 10
-9.73290967941284
 20
-1.49999968210856
 40
0.5
 50
360
 51
180
  0
ARC
  8
1
 10
-10.7329096794128
 20
-1.49999968210856
 40
0.5
 50
360
 51
180
  0
ARC
  8
1
 10
-11.7329096794128
 20
-1.49999968210856
 40
0.5
 50
360
 51
180
  0
ARC
  8
1
 10
-12.7329096794128
 20
-1.49999968210856
 40
0.5
 50
360
 51
180
  0
LINE
  8
1
  6
DOT
 10
-9.73290967941284
 20
1.00000031789144
 11
-8.23290967941284
 21
1.00000031789144
  0
LINE
  8
1
 10
-11.9329096794128
 20
1.80000031789144
 11
-11.9329096794128
 21
0.200000317891437
  0
LINE
  8
1
 10
-10.5329096794128
 20
1.80000031789144
 11
-10.5329096794128
 21
0.200000317891437
  0
POLYLINE
  8
1
 66
1
  0
VERTEX
  8
1
 10
-11.2329096794128
 20
2.50000031789144
  0
VERTEX
  8
1
 10
-12.7329096794128
 20
1.00000031789144
  0
VERTEX
  8
1
 10
-11.2329096794128
 20
-0.499999682108561
  0
VERTEX
  8
1
 10
-9.73290967941284
 20
1.00000031789144
  0
VERTEX
  8
1
 10
-11.2329096794128
 20
2.50000031789144
  0
SEQEND
  8
1
  0
LINE
  8
1
 10
5.26709032058716
 20
-0.999999682108561
 11
10.2670903205872
 21
-0.999999682108561
  0
LINE
  8
1
 10
1.26709032058716
 20
-0.999999682108561
 11
-0.332909679412846
 21
-0.999999682108561
  0
TEXT
  8
1
 40
1.125
 41
0.75
  1
L
  7
STANDARD
 72
1
 10
4.48055632909139
 20
-0.0940750439961753
 11
4.48055632909139
 21
-0.0940750439961753
  0
TEXT
  8
1
 40
1.8
 41
0.75
  1
R
  7
STANDARD
 72
1
 10
2.76709032058715
 20
-0.099999682108561
 11
2.76709032058715
 21
-0.099999682108561
  0
POLYLINE
  8
1
 66
1
  0
VERTEX
  8
1
 10
1.26709032058716
 20
-0.499999682108561
  0
VERTEX
  8
1
 10
5.26709032058716
 20
-0.499999682108561
  0
VERTEX
  8
1
 10
5.26709032058716
 20
-1.49999968210856
  0
VERTEX
  8
1
 10
1.26709032058716
 20
-1.49999968210856
  0
VERTEX
  8
1
 10
1.26709032058716
 20
-0.499999682108561
  0
SEQEND
  8
1
  0
LINE
  8
1
 10
-0.332909679412846
 20
3.00000031789144
 11
10.2670903205872
 21
3.00000031789144
  0
LINE
  8
1
 10
-7.73290967941284
 20
-0.999999682108561
 11
-5.73290967941284
 21
-0.999999682108561
  0
LINE
  8
1
 10
-7.73290967941284
 20
3.00000031789144
 11
-5.73290967941284
 21
3.00000031789144
  0
LINE
  8
1
 10
-8.73290967941284
 20
2.50000031789144
 11
-7.73290967941284
 21
3.17891438802083E-07
  0
LINE
  8
1
 10
-7.73290967941284
 20
2.00000031789144
 11
-7.73290967941284
 21
3.00000031789144
  0
LINE
  8
1
 10
-7.73290967941284
 20
3.17891438802083E-07
 11
-7.73290967941284
 21
-0.999999682108561
  0
ENDBLK
  8
0
  0
ENDSEC
  0
SECTION
  2
ENTITIES
  0
INSERT
  8
1
  2
B2839_00991707
 10
15.7329096794128
 20
5.99999968210856
  0
ENDSEC
  0
EOF
