  0
SECTION
  2
HEADER
  9
$LIMMIN
 10
0
 20
0
  9
$LIMMAX
 10
52.5
 20
74.25
  9
$EXTMIN
 10
0
 20
29.5800236066182
  9
$EXTMAX
 10
0
 20
12.4999997615814
  0
ENDSEC
  0
SECTION
  2
TABLES
  0
TABLE
  2
LTYPE
 70
9
  0
LTYPE
  2
CONTINUOUS
 70
64
  3
Solid line
 72
65
 73
0
 40
0
  0
LTYPE
  2
DASHED
 70
64
  3
__ __ __ __ __ __ __ __ __
 72
65
 73
2
 40
0.75
 49
0.5
 49
-0.25
  0
LTYPE
  2
DOT
 70
64
  3
...........................
 72
65
 73
2
 40
0.25
 49
0
 49
-0.25
  0
LTYPE
  2
DASHDOT
 70
64
  3
__ . __ . __ . __ . __ . __ . 
 72
65
 73
4
 40
1
 49
0.5
 49
-0.25
 49
0
 49
-0.25
  0
ENDTAB
  0
TABLE
  2
LAYER
 70
10
  0
LAYER
  2
1
 70
0
 62
7
  6
CONTINUOUS
  0
LAYER
  2
CONNECTIONS
 70
0
 62
-7
  6
CONTINUOUS
  0
ENDTAB
  0
ENDSEC
  0
SECTION
  2
BLOCKS
  0
BLOCK
  8
0
  2
TRICON
 70
0
 10
0
 20
0
  0
POLYLINE
  8
1
 70
1
 66
1
 40
0.5
 41
0.5
  0
VERTEX
  8
1
 10
-0.25
 20
0
 42
1
  0
VERTEX
  8
1
 10
0.25
 20
0
 42
1
  0
SEQEND
  8
1
  0
ENDBLK
  8
0
  0
BLOCK
  8
0
  2
TRICONSMALL
 70
0
 10
0
 20
0
  0
POLYLINE
  8
1
 70
1
 66
1
 40
0.25
 41
0.25
  0
VERTEX
  8
1
 10
-0.125
 20
0
 42
1
  0
VERTEX
  8
1
 10
0.125
 20
0
 42
1
  0
SEQEND
  8
1
  0
ENDBLK
  8
0
  0
BLOCK
  8
0
  2
TRICONCIRCLE
 70
0
 10
0
 20
0
  0
CIRCLE
  8
1
 10
0
 20
0
 40
0.5
  0
ENDBLK
  8
0
  0
BLOCK
  8
0
  2
LCBP0
 70
0
 10
0
 20
0
  0
LINE
  8
1
 10
0
 20
-0.46875
 11
0
 21
0.46875
  0
ENDBLK
  8
0
  0
BLOCK
  8
0
  2
LCBP1
 70
0
 10
0
 20
0
  0
LINE
  8
1
 10
0
 20
-0.625
 11
0
 21
0.625
  0
ENDBLK
  8
0
  0
BLOCK
  8
0
  2
LCBP2
 70
0
 10
0
 20
0
  0
LINE
  8
1
 10
0
 20
-0.9375
 11
0
 21
0.9375
  0
ENDBLK
  8
0
  0
BLOCK
  8
0
  2
LCA1
 70
0
 10
0
 20
0
  0
SOLID
  8
1
 62
7 
 10
0
 20
0
 11
-1.4
 21
-0.275
 12
-1.4
 22
0.275
 13
-1.4
 23
0.275
  0
ENDBLK
  8
0
  0
BLOCK
  8
0
  2
LCA2
 70
0
 10
0
 20
0
  0
SOLID
  8
1
 62
7 
 10
0
 20
0
 11
-1.65
 21
-0.525
 12
-1.65
 22
0.525
 13
-1.65
 23
0.525
  0
ENDBLK
  8
0
  0
BLOCK
  8
0
  2
LCA3
 70
0
 10
0
 20
0
  0
SOLID
  8
1
 62
7 
 10
0
 20
0
 11
-2.15
 21
-1.15
 12
-2.15
 22
1.15
 13
-2.15
 23
1.15
  0
ENDBLK
  8
0
  0
BLOCK
  8
0
  2
LCA1R
 70
0
 10
0
 20
0
  0
SOLID
  8
1
 62
7 
 10
0
 20
0
 11
1.4
 21
-0.275
 12
1.4
 22
0.275
 13
1.4
 23
0.275
  0
ENDBLK
  8
0
  0
BLOCK
  8
0
  2
LCA2R
 70
0
 10
0
 20
0
  0
SOLID
  8
1
 62
7 
 10
0
 20
0
 11
1.65
 21
-0.525
 12
1.65
 22
0.525
 13
1.65
 23
0.525
  0
ENDBLK
  8
0
  0
BLOCK
  8
0
  2
LCA3R
 70
0
 10
0
 20
0
  0
SOLID
  8
1
 62
7 
 10
0
 20
0
 11
2.15
 21
-1.15
 12
2.15
 22
1.15
 13
2.15
 23
1.15
  0
ENDBLK
  8
0
  0
BLOCK
  8
0
  2
B2783_00991704
 70
0
 10
0
 20
0
  0
POLYLINE
  8
1
 66
1
  0
VERTEX
  8
1
 10
-14.7900118033091
 20
4.25000031789144
  0
VERTEX
  8
1
 10
-4.79001180330912
 20
4.25000031789144
  0
VERTEX
  8
1
 10
-4.79001180330912
 20
-5.74999968210856
  0
VERTEX
  8
1
 10
-14.7900118033091
 20
-5.74999968210856
  0
VERTEX
  8
1
 10
-14.7900118033091
 20
4.25000031789144
  0
SEQEND
  8
1
  0
LINE
  8
1
 10
-4.79001180330912
 20
3.25000031789144
 11
-0.190011803309124
 21
3.25000031789144
  0
LINE
  8
1
 10
-4.79001180330912
 20
-0.749999682108561
 11
-0.190011803309124
 21
-0.749999682108561
  0
LINE
  8
1
 10
-4.79001180330912
 20
-4.74999968210856
 11
-0.190011803309124
 21
-4.74999968210856
  0
LINE
  8
1
 10
-0.290011803309123
 20
-4.74999968210856
 11
-0.190011803309119
 21
-4.74999968210856
  0
CIRCLE
  8
1
 10
0.209988196690877
 20
-4.74999968210856
 40
0.4
  0
CIRCLE
  8
1
 10
0.209988196690877
 20
-0.749999682108561
 40
0.4
  0
CIRCLE
  8
1
 10
0.209988196690877
 20
3.25000031789144
 40
0.4
  0
TEXT
  8
1
 40
1.8
 41
0.75
  1
NPN
  7
STANDARD
 72
1
 73
3
 10
-9.79001180330912
 20
3.25052083333333
 11
-9.79001180330912
 21
3.25052083333333
  0
TEXT
  8
1
 40
1.8
 41
0.75
  1
-
  7
STANDARD
 10
12.2099881966909
 20
-5.34999968210856
  0
TEXT
  8
1
 40
1.8
 41
0.75
  1
+
  7
STANDARD
 10
12.1930793921153
 20
2.42474006017049
  0
TEXT
  8
1
 40
1.8
 41
0.75
  1
BU
  7
STANDARD
 10
-4.79001180330912
 20
-4.30052019755045
  0
TEXT
  8
1
 40
1.8
 41
0.75
  1
BN
  7
STANDARD
 10
-4.79001180330912
 20
3.69947980244954
  0
TEXT
  8
1
 40
1.8
 41
0.75
  1
BK
  7
STANDARD
 10
-4.79001180330912
 20
-0.300520197550456
  0
LINE
  8
1
 10
-8.29001180330912
 20
-0.749999682108561
 11
-7.79001180330912
 21
-0.749999682108561
  0
LINE
  8
1
 10
-12.2900118033091
 20
-0.749999682108561
 11
-12.7900118033091
 21
-0.749999682108561
  0
ARC
  8
1
 10
-8.79001180330912
 20
-0.749999682108561
 40
0.5
 50
360
 51
180
  0
ARC
  8
1
 10
-9.79001180330912
 20
-0.749999682108561
 40
0.5
 50
360
 51
180
  0
ARC
  8
1
 10
-10.7900118033091
 20
-0.749999682108561
 40
0.5
 50
360
 51
180
  0
ARC
  8
1
 10
-11.7900118033091
 20
-0.749999682108561
 40
0.5
 50
360
 51
180
  0
LINE
  8
1
  6
DOT
 10
-8.79001180330912
 20
-2.74999968210856
 11
-7.19000428351565
 21
-2.74999968210856
  0
LINE
  8
1
 10
-10.9900118033091
 20
-1.94999968210856
 11
-10.9900118033091
 21
-3.54999968210856
  0
LINE
  8
1
 10
-9.59001180330912
 20
-1.94999968210856
 11
-9.59001180330912
 21
-3.54999968210856
  0
POLYLINE
  8
1
 66
1
  0
VERTEX
  8
1
 10
-10.2900118033091
 20
-1.24999968210856
  0
VERTEX
  8
1
 10
-11.7900118033091
 20
-2.74999968210856
  0
VERTEX
  8
1
 10
-10.2900118033091
 20
-4.24999968210856
  0
VERTEX
  8
1
 10
-8.79001180330912
 20
-2.74999968210856
  0
VERTEX
  8
1
 10
-10.2900118033091
 20
-1.24999968210856
  0
SEQEND
  8
1
  0
TEXT
  8
1
 40
1.125
 41
0.75
  1
L
  7
STANDARD
 72
2
 10
8.36614753405253
 20
0.1064453125
 11
8.36614753405253
 21
0.1064453125
  0
TEXT
  8
1
 40
1.8
 41
0.75
  1
R
  7
STANDARD
 72
2
 10
7.20580124855041
 20
0.150000317891439
 11
7.20580124855041
 21
0.150000317891439
  0
LINE
  8
1
 10
0.709988196690877
 20
-4.74999968210856
 11
11.2099881966909
 21
-4.74999968210856
  0
LINE
  8
1
 10
4.20998819669088
 20
-0.749999682108561
 11
0.709988196690877
 21
-0.749999682108561
  0
LINE
  8
1
 10
0.709988196690877
 20
3.25000031789144
 11
8.95998819669088
 21
3.25000031789144
  0
LINE
  8
1
 10
9.20998819669088
 20
-0.749999682108561
 11
9.20998819669088
 21
3.00000031789144
  0
LINE
  8
1
 10
9.45998819669088
 20
3.25000031789144
 11
11.2099881966909
 21
3.25000031789144
  0
CIRCLE
  8
1
 10
9.20998819669088
 20
3.25000031789144
 40
0.25
  0
LINE
  8
1
 10
8.20998819669088
 20
-0.749999682108561
 11
9.20998819669088
 21
-0.749999682108561
  0
POLYLINE
  8
1
 66
1
  0
VERTEX
  8
1
 10
4.20998819669088
 20
-0.249999682108561
  0
VERTEX
  8
1
 10
8.20998819669088
 20
-0.249999682108561
  0
VERTEX
  8
1
 10
8.20998819669088
 20
-1.24999968210856
  0
VERTEX
  8
1
 10
4.20998819669088
 20
-1.24999968210856
  0
VERTEX
  8
1
 10
4.20998819669088
 20
-0.249999682108561
  0
SEQEND
  8
1
  0
LINE
  8
1
 10
-6.79001180330912
 20
-4.74999968210856
 11
-4.79001180330912
 21
-4.74999968210856
  0
LINE
  8
1
 10
-6.79001180330912
 20
-0.749999682108561
 11
-4.79001180330912
 21
-0.749999682108561
  0
LINE
  8
1
 10
-7.79001180330912
 20
-1.24999968210856
 11
-6.79001180330912
 21
-3.74999968210856
  0
LINE
  8
1
 10
-6.79001180330912
 20
-1.74999968210856
 11
-6.79001180330912
 21
-0.749999682108561
  0
LINE
  8
1
 10
-6.79001180330912
 20
-3.74999968210856
 11
-6.79001180330912
 21
-4.74999968210856
  0
ENDBLK
  8
0
  0
ENDSEC
  0
SECTION
  2
ENTITIES
  0
INSERT
  8
1
  2
B2783_00991704
 10
14.7900118033091
 20
6.24999968210856
  0
ENDSEC
  0
EOF
