  0
SECTION
  2
HEADER
  9
$LIMMIN
 10
0
 20
0
  9
$LIMMAX
 10
52.5
 20
74.25
  9
$EXTMIN
 10
0
 20
88
  9
$EXTMAX
 10
0
 20
60
  0
ENDSEC
  0
SECTION
  2
TABLES
  0
TABLE
  2
LTYPE
 70
9
  0
LTYPE
  2
CONTINUOUS
 70
64
  3
Solid line
 72
65
 73
0
 40
0
  0
LTYPE
  2
DASHED
 70
64
  3
__ __ __ __ __ __ __ __ __
 72
65
 73
2
 40
0.75
 49
0.5
 49
-0.25
  0
LTYPE
  2
DOT
 70
64
  3
...........................
 72
65
 73
2
 40
0.25
 49
0
 49
-0.25
  0
LTYPE
  2
DASHDOT
 70
64
  3
__ . __ . __ . __ . __ . __ . 
 72
65
 73
4
 40
1
 49
0.5
 49
-0.25
 49
0
 49
-0.25
  0
ENDTAB
  0
TABLE
  2
LAYER
 70
10
  0
LAYER
  2
1
 70
0
 62
7
  6
CONTINUOUS
  0
LAYER
  2
CONNECTIONS
 70
0
 62
-7
  6
CONTINUOUS
  0
ENDTAB
  0
ENDSEC
  0
SECTION
  2
BLOCKS
  0
BLOCK
  8
0
  2
TRICON
 70
0
 10
0
 20
0
  0
POLYLINE
  8
1
 70
1
 66
1
 40
0.5
 41
0.5
  0
VERTEX
  8
1
 10
-0.25
 20
0
 42
1
  0
VERTEX
  8
1
 10
0.25
 20
0
 42
1
  0
SEQEND
  8
1
  0
ENDBLK
  8
0
  0
BLOCK
  8
0
  2
TRICONSMALL
 70
0
 10
0
 20
0
  0
POLYLINE
  8
1
 70
1
 66
1
 40
0.25
 41
0.25
  0
VERTEX
  8
1
 10
-0.125
 20
0
 42
1
  0
VERTEX
  8
1
 10
0.125
 20
0
 42
1
  0
SEQEND
  8
1
  0
ENDBLK
  8
0
  0
BLOCK
  8
0
  2
TRICONCIRCLE
 70
0
 10
0
 20
0
  0
CIRCLE
  8
1
 10
0
 20
0
 40
0.5
  0
ENDBLK
  8
0
  0
BLOCK
  8
0
  2
LCBP0
 70
0
 10
0
 20
0
  0
LINE
  8
1
 10
0
 20
-0.46875
 11
0
 21
0.46875
  0
ENDBLK
  8
0
  0
BLOCK
  8
0
  2
LCBP1
 70
0
 10
0
 20
0
  0
LINE
  8
1
 10
0
 20
-0.625
 11
0
 21
0.625
  0
ENDBLK
  8
0
  0
BLOCK
  8
0
  2
LCBP2
 70
0
 10
0
 20
0
  0
LINE
  8
1
 10
0
 20
-0.9375
 11
0
 21
0.9375
  0
ENDBLK
  8
0
  0
BLOCK
  8
0
  2
LCA1
 70
0
 10
0
 20
0
  0
SOLID
  8
1
 62
7 
 10
0
 20
0
 11
-1.4
 21
-0.275
 12
-1.4
 22
0.275
 13
-1.4
 23
0.275
  0
ENDBLK
  8
0
  0
BLOCK
  8
0
  2
LCA2
 70
0
 10
0
 20
0
  0
SOLID
  8
1
 62
7 
 10
0
 20
0
 11
-1.65
 21
-0.525
 12
-1.65
 22
0.525
 13
-1.65
 23
0.525
  0
ENDBLK
  8
0
  0
BLOCK
  8
0
  2
LCA3
 70
0
 10
0
 20
0
  0
SOLID
  8
1
 62
7 
 10
0
 20
0
 11
-2.15
 21
-1.15
 12
-2.15
 22
1.15
 13
-2.15
 23
1.15
  0
ENDBLK
  8
0
  0
BLOCK
  8
0
  2
LCA1R
 70
0
 10
0
 20
0
  0
SOLID
  8
1
 62
7 
 10
0
 20
0
 11
1.4
 21
-0.275
 12
1.4
 22
0.275
 13
1.4
 23
0.275
  0
ENDBLK
  8
0
  0
BLOCK
  8
0
  2
LCA2R
 70
0
 10
0
 20
0
  0
SOLID
  8
1
 62
7 
 10
0
 20
0
 11
1.65
 21
-0.525
 12
1.65
 22
0.525
 13
1.65
 23
0.525
  0
ENDBLK
  8
0
  0
BLOCK
  8
0
  2
LCA3R
 70
0
 10
0
 20
0
  0
SOLID
  8
1
 62
7 
 10
0
 20
0
 11
2.15
 21
-1.15
 12
2.15
 22
1.15
 13
2.15
 23
1.15
  0
ENDBLK
  8
0
  0
BLOCK
  8
0
  2
B132077_00991651
 70
0
 10
0
 20
0
  0
POLYLINE
  8
1
 66
1
  0
VERTEX
  8
1
 10
-44
 20
26.1333333333333
  0
VERTEX
  8
1
 10
-44
 20
-25.8666666666667
  0
VERTEX
  8
1
 10
44
 20
-25.8666666666667
  0
VERTEX
  8
1
 10
44
 20
26.1333333333333
  0
VERTEX
  8
1
 10
-44
 20
26.1333333333333
  0
SEQEND
  8
1
  0
TEXT
  8
1
 40
2.475
 41
0.75
  1
1
  7
STANDARD
 72
2
 73
3
 10
2
 20
-26.4854166666667
 11
2
 21
-26.4854166666667
  0
LINE
  8
1
 10
10.1
 20
-26
 11
10.1
 21
-30
  0
LINE
  8
1
 10
2.1
 20
-26
 11
2.1
 21
-30
  0
LINE
  8
1
 10
-5.9
 20
-26
 11
-5.9
 21
-30
  0
TEXT
  8
1
 40
2.475
 41
0.75
  1
5
  7
STANDARD
 73
3
 10
11
 20
-26.5409514745076
 11
11
 21
-26.5409514745076
  0
TEXT
  8
1
 40
2.475
 41
0.75
  1
3
  7
STANDARD
 72
2
 73
3
 10
-6
 20
-26.4854166666667
 11
-6
 21
-26.4854166666667
  0
LINE
  8
1
 10
10.1
 20
26
 11
10.1
 21
30
  0
LINE
  8
1
 10
2.1
 20
26
 11
2.1
 21
30
  0
TEXT
  8
1
 40
2.475
 41
0.75
  1
4
  7
STANDARD
 72
2
 73
3
 10
9.8303746541341
 20
29.8868159294128
 11
9.8303746541341
 21
29.8868159294128
  0
TEXT
  8
1
 40
2.475
 41
0.75
  1
2
  7
STANDARD
 72
2
 73
3
 10
1.83037465413412
 20
29.8868159294128
 11
1.83037465413412
 21
29.8868159294128
  0
LINE
  8
1
 10
22.1
 20
-26
 11
22.1
 21
-30
  0
TEXT
  8
1
 40
2.475
 41
0.75
  1
82
  7
STANDARD
 73
3
 10
22.2
 20
-26.7465174039205
 11
22.2
 21
-26.7465174039205
  0
LINE
  8
1
 10
-19.9
 20
-26
 11
-19.9
 21
-30
  0
TEXT
  8
1
 40
2.475
 41
0.75
  1
84
  7
STANDARD
 72
2
 73
3
 10
-20.3516496022542
 20
-26.374284807841
 11
-20.3516496022542
 21
-26.374284807841
  0
LINE
  8
1
 10
32.1
 20
26
 11
32.1
 21
30
  0
TEXT
  8
1
 40
2.475
 41
0.75
  1
12
  7
STANDARD
 10
32.6
 20
26.793034807841
  0
LINE
  8
1
 10
-29.9
 20
26
 11
-29.9
 21
30
  0
TEXT
  8
1
 40
2.475
 41
0.75
  1
14
  7
STANDARD
 72
2
 73
3
 10
-31.1758248011271
 20
29.7868159294128
 11
-31.1758248011271
 21
29.7868159294128
  0
LINE
  8
1
 10
22.1
 20
-18
 11
22.1
 21
-26
  0
LINE
  8
1
 10
-19.9
 20
-18
 11
-19.9
 21
-26
  0
LINE
  8
1
 10
32.1
 20
22
 11
32.1
 21
26
  0
LINE
  8
1
 10
-29.9
 20
22
 11
-29.9
 21
26
  0
POLYLINE
  8
1
 66
1
  0
VERTEX
  8
1
 10
-29.9
 20
6
  0
VERTEX
  8
1
 10
-29.9
 20
0
  0
VERTEX
  8
1
 10
-23.9
 20
0
  0
VERTEX
  8
1
 10
-23.9
 20
-10
  0
SEQEND
  8
1
  0
POLYLINE
  8
1
 66
1
  0
VERTEX
  8
1
 10
26.1
 20
-10
  0
VERTEX
  8
1
 10
26.1
 20
0
  0
VERTEX
  8
1
 10
32.1
 20
0
  0
VERTEX
  8
1
 10
32.1
 20
6
  0
SEQEND
  8
1
  0
POLYLINE
  8
1
 66
1
  0
VERTEX
  8
1
 10
-23.9
 20
-18
  0
VERTEX
  8
1
 10
-23.9
 20
-22
  0
VERTEX
  8
1
 10
26.1
 20
-22
  0
VERTEX
  8
1
 10
26.1
 20
-18
  0
VERTEX
  8
1
 10
26.1
 20
-18
  0
SEQEND
  8
1
  0
LINE
  8
1
 10
2.1
 20
20
 11
2.1
 21
26
  0
LINE
  8
1
 10
10.1
 20
20
 11
10.1
 21
26
  0
LINE
  8
1
 10
10.1
 20
-14
 11
10.1
 21
-26
  0
LINE
  8
1
 10
-5.9
 20
-14
 11
-5.9
 21
-26
  0
POLYLINE
  8
1
 66
1
  0
VERTEX
  8
1
 10
2.1
 20
12
  0
VERTEX
  8
1
 10
2.1
 20
8
  0
VERTEX
  8
1
 10
-5.9
 20
8
  0
VERTEX
  8
1
 10
-5.9
 20
-6
  0
SEQEND
  8
1
  0
LINE
  8
1
 10
10.1
 20
12
 11
10.1
 21
-6
  0
POLYLINE
  8
1
 66
1
  0
VERTEX
  8
1
 10
2.1
 20
-26
  0
VERTEX
  8
1
 10
2.1
 20
4
  0
VERTEX
  8
1
 10
6.1
 20
4
  0
VERTEX
  8
1
 10
6.1
 20
12
  0
SEQEND
  8
1
  0
LINE
  8
1
 10
12.1
 20
-12
 11
10.1
 21
-12
  0
LINE
  8
1
 10
8.1
 20
-10
 11
10.1
 21
-10
  0
LINE
  8
1
 10
12.1
 20
-8
 11
10.1
 21
-8
  0
POLYLINE
  8
1
 66
1
  0
VERTEX
  8
1
 10
12.1
 20
-6
  0
VERTEX
  8
1
 10
8.1
 20
-6
  0
VERTEX
  8
1
 10
8.1
 20
-14
  0
VERTEX
  8
1
 10
12.1
 20
-14
  0
VERTEX
  8
1
 10
12.1
 20
-6
  0
SEQEND
  8
1
  0
LINE
  8
1
 10
-3.9
 20
-12
 11
-5.9
 21
-12
  0
LINE
  8
1
 10
-7.9
 20
-10
 11
-5.9
 21
-10
  0
LINE
  8
1
 10
-3.9
 20
-8
 11
-5.9
 21
-8
  0
POLYLINE
  8
1
 66
1
  0
VERTEX
  8
1
 10
-3.9
 20
-6
  0
VERTEX
  8
1
 10
-7.9
 20
-6
  0
VERTEX
  8
1
 10
-7.9
 20
-14
  0
VERTEX
  8
1
 10
-3.9
 20
-14
  0
VERTEX
  8
1
 10
-3.9
 20
-6
  0
SEQEND
  8
1
  0
LINE
  8
1
 10
10.1
 20
4
 11
10.1
 21
-4
  0
LINE
  8
1
 10
6.66666666666667
 20
-1.36666666666666
 11
13.6666666666667
 21
1.63333333333334
  0
INSERT
  8
1
  2
LCA1
 10
13.6666666666667
 20
1.63333333333334
 50
23.1985905136482
  0
ARC
  8
1
 10
9.473903143468E-15
 20
0
 40
9
 50
340.528596800055
 51
19.4710505793386
  0
ARC
  8
1
 10
20
 20
0
 40
9
 50
160.52865870751
 51
199.47139531546
  0
LINE
  8
1
 10
-5.9
 20
-5
 11
-5.9
 21
5
  0
LINE
  8
1
 10
-9.33333333333333
 20
-1.36666666666666
 11
-2.33333333333333
 21
1.63333333333334
  0
INSERT
  8
1
  2
LCA1
 10
-2.33333333333333
 20
1.63333333333334
 50
23.1985905136482
  0
ARC
  8
1
 10
-16
 20
0
 40
9
 50
340.528596800055
 51
19.4710505793386
  0
ARC
  8
1
 10
4
 20
0
 40
9
 50
160.52865870751
 51
199.47139531546
  0
LINE
  8
1
 10
22.1
 20
14
 11
32.1
 21
14
  0
POLYLINE
  8
1
 70
1
 66
1
 40
0.6
 41
0.6
  0
VERTEX
  8
1
 10
31.8
 20
14.0000000000001
 42
1
  0
VERTEX
  8
1
 10
32.4
 20
14.0000000000001
 42
1
  0
SEQEND
  8
1
  0
LINE
  8
1
 10
32.1
 20
22.0000000000001
 11
32.1
 21
10.4000000000001
  0
LINE
  8
1
 10
32.1
 20
8.00000000000007
 11
32.1
 21
6.00000000000007
  0
CIRCLE
  8
1
 10
32.1
 20
9.40000000000006
 40
1
  0
LINE
  8
1
 10
32.1
 20
8.00000000000007
 11
34.1
 21
10.0000000000001
  0
LINE
  8
1
 10
30.1
 20
10.0000000000001
 11
32.1
 21
8.00000000000007
  0
LINE
  8
1
 10
32.1
 20
20.0000000000001
 11
34.1
 21
18.0000000000001
  0
LINE
  8
1
 10
30.1
 20
18.0000000000001
 11
32.1
 21
20.0000000000001
  0
POLYLINE
  8
1
 66
1
  0
VERTEX
  8
1
 10
28.1
 20
22
  0
VERTEX
  8
1
 10
28.1
 20
6
  0
VERTEX
  8
1
 10
36.1
 20
6
  0
VERTEX
  8
1
 10
36.1
 20
22
  0
VERTEX
  8
1
 10
28.1
 20
22
  0
SEQEND
  8
1
  0
LINE
  8
1
 10
-21.9
 20
14
 11
-29.9
 21
14
  0
POLYLINE
  8
1
 70
1
 66
1
 40
0.6
 41
0.6
  0
VERTEX
  8
1
 10
-30.2
 20
14.0000000000001
 42
1
  0
VERTEX
  8
1
 10
-29.6
 20
14.0000000000001
 42
1
  0
SEQEND
  8
1
  0
LINE
  8
1
 10
-29.9
 20
22.0000000000001
 11
-29.9
 21
10.4000000000001
  0
LINE
  8
1
 10
-29.9
 20
8.00000000000007
 11
-29.9
 21
6.00000000000007
  0
CIRCLE
  8
1
 10
-29.9
 20
9.40000000000006
 40
1
  0
LINE
  8
1
 10
-29.9
 20
8.00000000000007
 11
-31.9
 21
10.0000000000001
  0
LINE
  8
1
 10
-27.9
 20
10.0000000000001
 11
-29.9
 21
8.00000000000007
  0
LINE
  8
1
 10
-29.9
 20
20.0000000000001
 11
-31.9
 21
18.0000000000001
  0
LINE
  8
1
 10
-27.9
 20
18.0000000000001
 11
-29.9
 21
20.0000000000001
  0
POLYLINE
  8
1
 66
1
  0
VERTEX
  8
1
 10
-25.9
 20
22
  0
VERTEX
  8
1
 10
-25.9
 20
6
  0
VERTEX
  8
1
 10
-33.9
 20
6
  0
VERTEX
  8
1
 10
-33.9
 20
22
  0
VERTEX
  8
1
 10
-25.9
 20
22
  0
SEQEND
  8
1
  0
POLYLINE
  8
1
 66
1
  0
VERTEX
  8
1
 10
15.1
 20
-16.0000075183525
  0
VERTEX
  8
1
 10
15.5166666666667
 20
-18.0000075183525
  0
VERTEX
  8
1
 10
16.35
 20
-14.0000075183525
  0
VERTEX
  8
1
 10
17.1833333333332
 20
-18.0000075183525
  0
VERTEX
  8
1
 10
18.0166666666667
 20
-14.0000075183525
  0
VERTEX
  8
1
 10
18.85
 20
-18.0000075183525
  0
VERTEX
  8
1
 10
19.6833333333332
 20
-14.0000075183525
  0
VERTEX
  8
1
 10
20.1
 20
-16.0000075183525
  0
SEQEND
  8
1
  0
ARC
  8
1
 10
41.1
 20
-16
 40
1
 50
270
 51
90
  0
LINE
  8
1
 10
41.1
 20
-15
 11
36.1
 21
-15
  0
LINE
  8
1
 10
41.1
 20
-17
 11
36.1
 21
-17
  0
LINE
  8
1
 10
34.1
 20
-18.0000075183525
 11
34.1
 21
-10.0000075183525
  0
INSERT
  8
1
  2
LCA1
 10
34.1
 20
-10.0000075183525
 50
90
  0
LINE
  8
1
 10
30.1
 20
-18.0000075183525
 11
30.1
 21
-16.0000075183525
  0
INSERT
  8
1
  2
LCBP1
 10
30.1
 20
-16.0000075183525
 50
90
  0
LINE
  8
1
 10
26.1
 20
-10.0000075183525
 11
22.1
 21
-18.0000075183525
  0
INSERT
  8
1
  2
LCA1
 10
22.1
 20
-18.0000075183525
 50
-116.565051177078
  0
POLYLINE
  8
1
 66
1
  0
VERTEX
  8
1
 10
28.1
 20
-10
  0
VERTEX
  8
1
 10
28.1
 20
-18
  0
VERTEX
  8
1
 10
20.1
 20
-18
  0
VERTEX
  8
1
 10
20.1
 20
-10
  0
VERTEX
  8
1
 10
28.1
 20
-10
  0
SEQEND
  8
1
  0
POLYLINE
  8
1
 66
1
  0
VERTEX
  8
1
 10
36.1
 20
-10
  0
VERTEX
  8
1
 10
36.1
 20
-18
  0
VERTEX
  8
1
 10
28.1
 20
-18
  0
VERTEX
  8
1
 10
28.1
 20
-10
  0
VERTEX
  8
1
 10
36.1
 20
-10
  0
SEQEND
  8
1
  0
LINE
  8
1
 10
26.1
 20
-18.0000075183525
 11
26.1
 21
-16.0000075183525
  0
INSERT
  8
1
  2
LCBP1
 10
26.1
 20
-16.0000075183525
 50
90
  0
POLYLINE
  8
1
 66
1
  0
VERTEX
  8
1
 10
-12.9
 20
-16.0000075183525
  0
VERTEX
  8
1
 10
-13.3166666666667
 20
-18.0000075183525
  0
VERTEX
  8
1
 10
-14.15
 20
-14.0000075183525
  0
VERTEX
  8
1
 10
-14.9833333333332
 20
-18.0000075183525
  0
VERTEX
  8
1
 10
-15.8166666666667
 20
-14.0000075183525
  0
VERTEX
  8
1
 10
-16.65
 20
-18.0000075183525
  0
VERTEX
  8
1
 10
-17.4833333333332
 20
-14.0000075183525
  0
VERTEX
  8
1
 10
-17.9
 20
-16.0000075183525
  0
SEQEND
  8
1
  0
ARC
  8
1
 10
-38.9
 20
-16
 40
1
 50
90
 51
270
  0
LINE
  8
1
 10
-38.9
 20
-15
 11
-33.9
 21
-15
  0
LINE
  8
1
 10
-38.9
 20
-17
 11
-33.9
 21
-17
  0
LINE
  8
1
 10
-31.9
 20
-18.0000075183525
 11
-31.9
 21
-10.0000075183525
  0
INSERT
  8
1
  2
LCA1
 10
-31.9
 20
-10.0000075183525
 50
90
  0
LINE
  8
1
 10
-27.9
 20
-18.0000075183525
 11
-27.9
 21
-16.0000075183525
  0
INSERT
  8
1
  2
LCBP1
 10
-27.9
 20
-16.0000075183525
 50
90
  0
LINE
  8
1
 10
-23.9
 20
-10.0000075183525
 11
-19.9
 21
-18.0000075183525
  0
INSERT
  8
1
  2
LCA1
 10
-19.9
 20
-18.0000075183525
 50
-63.434948822922
  0
POLYLINE
  8
1
 66
1
  0
VERTEX
  8
1
 10
-25.9
 20
-10
  0
VERTEX
  8
1
 10
-25.9
 20
-18
  0
VERTEX
  8
1
 10
-17.9
 20
-18
  0
VERTEX
  8
1
 10
-17.9
 20
-10
  0
VERTEX
  8
1
 10
-25.9
 20
-10
  0
SEQEND
  8
1
  0
POLYLINE
  8
1
 66
1
  0
VERTEX
  8
1
 10
-33.9
 20
-10
  0
VERTEX
  8
1
 10
-33.9
 20
-18
  0
VERTEX
  8
1
 10
-25.9
 20
-18
  0
VERTEX
  8
1
 10
-25.9
 20
-10
  0
VERTEX
  8
1
 10
-33.9
 20
-10
  0
SEQEND
  8
1
  0
LINE
  8
1
 10
-23.9
 20
-18.0000075183525
 11
-23.9
 21
-16.0000075183525
  0
INSERT
  8
1
  2
LCBP1
 10
-23.9
 20
-16.0000075183525
 50
90
  0
LINE
  8
1
 10
19.5640885929622
 20
14
 11
22.1
 21
14
  0
LINE
  8
1
 10
10.1
 20
12
 11
10.1
 21
14
  0
INSERT
  8
1
  2
LCBP1
 10
10.1
 20
14
 50
90
  0
POLYLINE
  8
1
 66
1
  0
VERTEX
  8
1
 10
0.100000000000004
 20
20
  0
VERTEX
  8
1
 10
12.1
 20
20
  0
VERTEX
  8
1
 10
12.1
 20
12
  0
VERTEX
  8
1
 10
0.100000000000004
 20
12
  0
VERTEX
  8
1
 10
0.100000000000004
 20
20
  0
SEQEND
  8
1
  0
LINE
  8
1
 10
2.1
 20
20
 11
2.1
 21
12
  0
INSERT
  8
1
  2
LCA1
 10
2.1
 20
12
 50
-90
  0
LINE
  8
1
 10
6.1
 20
12
 11
10.1
 21
20
  0
INSERT
  8
1
  2
LCA1
 10
10.1
 20
20
 50
63.434948822922
  0
LINE
  8
1
 10
-9.9
 20
12
 11
-9.9
 21
14
  0
INSERT
  8
1
  2
LCBP1
 10
-9.9
 20
14
 50
90
  0
POLYLINE
  8
1
 66
1
  0
VERTEX
  8
1
 10
-11.9
 20
20
  0
VERTEX
  8
1
 10
0.100000000000005
 20
20
  0
VERTEX
  8
1
 10
0.100000000000005
 20
12
  0
VERTEX
  8
1
 10
-11.9
 20
12
  0
VERTEX
  8
1
 10
-11.9
 20
20
  0
SEQEND
  8
1
  0
LINE
  8
1
 10
-1.9
 20
20
 11
-1.9
 21
12
  0
INSERT
  8
1
  2
LCA1
 10
-1.9
 20
12
 50
-90
  0
LINE
  8
1
 10
-5.9
 20
12
 11
-9.9
 21
20
  0
INSERT
  8
1
  2
LCA1
 10
-9.9
 20
20
 50
116.565051177078
  0
LINE
  8
1
 10
-15.8999999999931
 20
14
 11
-11.9
 21
14
  0
LINE
  8
1
 10
-19.3640885929621
 20
14.0000075183526
 11
-21.9
 21
14.0000075183526
  0
LINE
  8
1
 10
-19.3640885929621
 20
16.0000075183526
 11
-19.3640885929621
 21
12.0000075183526
  0
LINE
  8
1
 10
-19.3640885929621
 20
16.0000075183526
 11
-15.8999869778244
 21
14.0000075183526
  0
LINE
  8
1
 10
-19.3640885929621
 20
12.0000075183526
 11
-15.8999869778244
 21
14.0000075183526
  0
LINE
  8
1
 10
16.0999999999931
 20
14
 11
12.1
 21
14
  0
LINE
  8
1
 10
19.5640885929621
 20
16.0000075183526
 11
19.5640885929621
 21
12.0000075183526
  0
LINE
  8
1
 10
19.5640885929621
 20
16.0000075183526
 11
16.0999869778244
 21
14.0000075183526
  0
LINE
  8
1
 10
19.5640885929621
 20
12.0000075183526
 11
16.0999869778244
 21
14.0000075183526
  0
CIRCLE
  8
CONNECTIONS
 10
-6
 20
-29.8666666666667
 40
0
  0
CIRCLE
  8
CONNECTIONS
 10
2
 20
-29.8666666666667
 40
0
  0
CIRCLE
  8
CONNECTIONS
 10
10
 20
-29.8666666666667
 40
0
  0
CIRCLE
  8
CONNECTIONS
 10
2.1
 20
30.1333333333333
 40
0
  0
CIRCLE
  8
CONNECTIONS
 10
10.1
 20
30.1333333333333
 40
0
  0
CIRCLE
  8
CONNECTIONS
 10
22.0892234802246
 20
-29.9944340705872
 40
0
  0
CIRCLE
  8
CONNECTIONS
 10
-20
 20
-30
 40
0
  0
CIRCLE
  8
CONNECTIONS
 10
32.1
 20
30.055534807841
 40
0
  0
CIRCLE
  8
CONNECTIONS
 10
-30
 20
30.0333333333333
 40
0
  0
ENDBLK
  8
0
  0
ENDSEC
  0
SECTION
  2
ENTITIES
  0
INSERT
  8
1
  2
B132077_00991651
 10
44
 20
30
  0
ENDSEC
  0
EOF
