  0
SECTION
  2
HEADER
  9
$LIMMIN
 10
0
 20
0
  9
$LIMMAX
 10
52.5
 20
74.25
  9
$EXTMIN
 10
0
 20
36.0800236066182
  9
$EXTMAX
 10
0
 20
16.9999997615814
  0
ENDSEC
  0
SECTION
  2
TABLES
  0
TABLE
  2
LTYPE
 70
9
  0
LTYPE
  2
CONTINUOUS
 70
64
  3
Solid line
 72
65
 73
0
 40
0
  0
LTYPE
  2
DASHED
 70
64
  3
__ __ __ __ __ __ __ __ __
 72
65
 73
2
 40
0.75
 49
0.5
 49
-0.25
  0
LTYPE
  2
DOT
 70
64
  3
...........................
 72
65
 73
2
 40
0.25
 49
0
 49
-0.25
  0
LTYPE
  2
DASHDOT
 70
64
  3
__ . __ . __ . __ . __ . __ . 
 72
65
 73
4
 40
1
 49
0.5
 49
-0.25
 49
0
 49
-0.25
  0
ENDTAB
  0
TABLE
  2
LAYER
 70
10
  0
LAYER
  2
1
 70
0
 62
7
  6
CONTINUOUS
  0
LAYER
  2
CONNECTIONS
 70
0
 62
-7
  6
CONTINUOUS
  0
ENDTAB
  0
ENDSEC
  0
SECTION
  2
BLOCKS
  0
BLOCK
  8
0
  2
TRICON
 70
0
 10
0
 20
0
  0
POLYLINE
  8
1
 70
1
 66
1
 40
0.5
 41
0.5
  0
VERTEX
  8
1
 10
-0.25
 20
0
 42
1
  0
VERTEX
  8
1
 10
0.25
 20
0
 42
1
  0
SEQEND
  8
1
  0
ENDBLK
  8
0
  0
BLOCK
  8
0
  2
TRICONSMALL
 70
0
 10
0
 20
0
  0
POLYLINE
  8
1
 70
1
 66
1
 40
0.25
 41
0.25
  0
VERTEX
  8
1
 10
-0.125
 20
0
 42
1
  0
VERTEX
  8
1
 10
0.125
 20
0
 42
1
  0
SEQEND
  8
1
  0
ENDBLK
  8
0
  0
BLOCK
  8
0
  2
TRICONCIRCLE
 70
0
 10
0
 20
0
  0
CIRCLE
  8
1
 10
0
 20
0
 40
0.5
  0
ENDBLK
  8
0
  0
BLOCK
  8
0
  2
LCBP0
 70
0
 10
0
 20
0
  0
LINE
  8
1
 10
0
 20
-0.46875
 11
0
 21
0.46875
  0
ENDBLK
  8
0
  0
BLOCK
  8
0
  2
LCBP1
 70
0
 10
0
 20
0
  0
LINE
  8
1
 10
0
 20
-0.625
 11
0
 21
0.625
  0
ENDBLK
  8
0
  0
BLOCK
  8
0
  2
LCBP2
 70
0
 10
0
 20
0
  0
LINE
  8
1
 10
0
 20
-0.9375
 11
0
 21
0.9375
  0
ENDBLK
  8
0
  0
BLOCK
  8
0
  2
LCA1
 70
0
 10
0
 20
0
  0
SOLID
  8
1
 62
7 
 10
0
 20
0
 11
-1.4
 21
-0.275
 12
-1.4
 22
0.275
 13
-1.4
 23
0.275
  0
ENDBLK
  8
0
  0
BLOCK
  8
0
  2
LCA2
 70
0
 10
0
 20
0
  0
SOLID
  8
1
 62
7 
 10
0
 20
0
 11
-1.65
 21
-0.525
 12
-1.65
 22
0.525
 13
-1.65
 23
0.525
  0
ENDBLK
  8
0
  0
BLOCK
  8
0
  2
LCA3
 70
0
 10
0
 20
0
  0
SOLID
  8
1
 62
7 
 10
0
 20
0
 11
-2.15
 21
-1.15
 12
-2.15
 22
1.15
 13
-2.15
 23
1.15
  0
ENDBLK
  8
0
  0
BLOCK
  8
0
  2
LCA1R
 70
0
 10
0
 20
0
  0
SOLID
  8
1
 62
7 
 10
0
 20
0
 11
1.4
 21
-0.275
 12
1.4
 22
0.275
 13
1.4
 23
0.275
  0
ENDBLK
  8
0
  0
BLOCK
  8
0
  2
LCA2R
 70
0
 10
0
 20
0
  0
SOLID
  8
1
 62
7 
 10
0
 20
0
 11
1.65
 21
-0.525
 12
1.65
 22
0.525
 13
1.65
 23
0.525
  0
ENDBLK
  8
0
  0
BLOCK
  8
0
  2
LCA3R
 70
0
 10
0
 20
0
  0
SOLID
  8
1
 62
7 
 10
0
 20
0
 11
2.15
 21
-1.15
 12
2.15
 22
1.15
 13
2.15
 23
1.15
  0
ENDBLK
  8
0
  0
BLOCK
  8
0
  2
B3222_00991648
 70
0
 10
0
 20
0
  0
LINE
  8
1
 10
-2.04001180330912
 20
-6.49999968210856
 11
0.559988196690876
 21
-6.49999968210856
  0
LINE
  8
1
 10
-2.04001180330912
 20
-2.49999968210856
 11
0.559988196690876
 21
-2.49999968210856
  0
LINE
  8
1
 10
-2.04001180330912
 20
1.50000031789144
 11
0.559988196690876
 21
1.50000031789144
  0
LINE
  8
1
 10
-2.04001180330912
 20
5.50000031789144
 11
0.559988196690876
 21
5.50000031789144
  0
LINE
  8
1
 10
0.459988196690877
 20
-6.49999968210856
 11
0.559988196690881
 21
-6.49999968210856
  0
LINE
  8
1
 10
0.459988196690877
 20
-2.49999968210856
 11
0.559988196690881
 21
-2.49999968210856
  0
CIRCLE
  8
1
 10
0.959988196690877
 20
-6.49999968210856
 40
0.4
  0
CIRCLE
  8
1
 10
0.959988196690877
 20
-2.49999968210856
 40
0.4
  0
CIRCLE
  8
1
 10
0.959988196690877
 20
1.50000031789144
 40
0.4
  0
CIRCLE
  8
1
 10
0.959988196690877
 20
5.50000031789144
 40
0.4
  0
LINE
  8
1
 10
-4.04001180330912
 20
-6.49999968210856
 11
-2.04001180330912
 21
-6.49999968210856
  0
LINE
  8
1
 10
-4.04001180330912
 20
-2.49999968210856
 11
-2.04001180330912
 21
-2.49999968210856
  0
LINE
  8
1
 10
-4.04001180330912
 20
1.50000031789144
 11
-2.04001180330912
 21
1.50000031789144
  0
LINE
  8
1
 10
-4.04001180330912
 20
5.50000031789144
 11
-2.04001180330912
 21
5.50000031789144
  0
POLYLINE
  8
1
 66
1
  0
VERTEX
  8
1
 10
-18.0400118033091
 20
6.50000031789144
  0
VERTEX
  8
1
 10
-4.04001180330912
 20
6.50000031789144
  0
VERTEX
  8
1
 10
-4.04001180330912
 20
-7.49999968210856
  0
VERTEX
  8
1
 10
-18.0400118033091
 20
-7.49999968210856
  0
VERTEX
  8
1
 10
-18.0400118033091
 20
6.50000031789144
  0
SEQEND
  8
1
  0
LINE
  8
1
 10
1.35998819669087
 20
-6.49999968210856
 11
14.9599881966909
 21
-6.49999968210856
  0
LINE
  8
1
 10
1.35998819669087
 20
-2.49999968210856
 11
4.95998819669088
 21
-2.49999968210856
  0
LINE
  8
1
 10
1.35998819669087
 20
1.50000031789144
 11
3.95998819669088
 21
1.50000031789144
  0
LINE
  8
1
 10
1.35998819669087
 20
5.50000031789144
 11
10.7599881966909
 21
5.50000031789144
  0
LINE
  8
1
 10
11.1600196363541
 20
5.50000031789144
 11
12.7599881966909
 21
5.50000031789144
  0
LINE
  8
1
 10
13.1599881966909
 20
5.50000031789144
 11
14.9599881966909
 21
5.50000031789144
  0
CIRCLE
  8
1
 10
12.9599881966909
 20
5.50000031789144
 40
0.2
  0
CIRCLE
  8
1
 10
10.9599881966909
 20
5.50000031789144
 40
0.2
  0
LINE
  8
1
 10
12.9599881966909
 20
5.30000031789144
 11
12.9599881966909
 21
-2.49999968210856
  0
LINE
  8
1
 10
10.9599881966909
 20
5.30000031789144
 11
10.9599881966909
 21
1.50000031789144
  0
LINE
  8
1
 10
9.95998819669088
 20
1.50000031789144
 11
10.9599881966909
 21
1.50000031789144
  0
TEXT
  8
1
 40
1.125
 41
0.75
  1
L
  7
STANDARD
 72
1
 10
9.17345420519511
 20
2.40592495600382
 11
9.17345420519511
 21
2.40592495600382
  0
TEXT
  8
1
 40
1.8
 41
0.75
  1
R
  7
STANDARD
 72
1
 10
7.45998819669088
 20
2.40000031789144
 11
7.45998819669088
 21
2.40000031789144
  0
LINE
  8
1
 10
5.95998819669088
 20
1.50000031789144
 11
3.95998819669088
 21
1.50000031789144
  0
POLYLINE
  8
1
 66
1
  0
VERTEX
  8
1
 10
5.95998819669088
 20
2.00000031789144
  0
VERTEX
  8
1
 10
9.95998819669088
 20
2.00000031789144
  0
VERTEX
  8
1
 10
9.95998819669088
 20
1.00000031789144
  0
VERTEX
  8
1
 10
5.95998819669088
 20
1.00000031789144
  0
VERTEX
  8
1
 10
5.95998819669088
 20
2.00000031789144
  0
SEQEND
  8
1
  0
TEXT
  8
1
 40
1.8
 41
0.75
  1
NPN
  7
STANDARD
 72
1
 73
3
 10
-11.0400118033091
 20
5.00052083333333
 11
-11.0400118033091
 21
5.00052083333333
  0
TEXT
  8
1
 40
1.8
 41
0.75
  1
BN
  7
STANDARD
 10
-4.04001180330912
 20
5.94947980244954
  0
TEXT
  8
1
 40
1.8
 41
0.75
  1
BK
  7
STANDARD
 10
-4.04001180330912
 20
1.94947980244954
  0
TEXT
  8
1
 40
1.8
 41
0.75
  1
WH
  7
STANDARD
 10
-4.04001180330912
 20
-2.05052019755046
  0
TEXT
  8
1
 40
1.8
 41
0.75
  1
BU
  7
STANDARD
 10
-4.04001180330912
 20
-6.05052019755046
  0
TEXT
  8
1
 40
1.8
 41
0.75
  1
-
  7
STANDARD
 10
15.3630554676056
 20
-7.59999968210856
  0
TEXT
  8
1
 40
1.8
 41
0.75
  1
+
  7
STANDARD
 10
15.4430793921153
 20
4.67474006017049
  0
LINE
  8
1
  6
DOT
 10
-10.4517920413949
 20
-2.49999968210856
 11
-6.44000299117702
 21
-2.49999968210856
  0
LINE
  8
1
 10
-11.0400118033091
 20
-1.78218959760379
 11
-11.0400118033091
 21
-0.499999682108562
  0
POLYLINE
  8
1
 66
1
  0
VERTEX
  8
1
 10
-11.0400118033091
 20
-3.49999968210856
  0
VERTEX
  8
1
 10
-12.0400118033091
 20
-1.79999968210856
  0
VERTEX
  8
1
 10
-10.0400118033091
 20
-1.79999968210856
  0
VERTEX
  8
1
 10
-11.0400118033091
 20
-3.49999968210856
  0
SEQEND
  8
1
  0
LINE
  8
1
 10
-12.0400118033091
 20
-3.49999968210856
 11
-10.0400118033091
 21
-3.49999968210856
  0
LINE
  8
1
 10
-11.0400118033091
 20
-3.49999968210856
 11
-11.0400118033091
 21
-4.49999968210856
  0
LINE
  8
1
 10
-12.3733451366425
 20
3.17891437617845E-07
 11
-11.6662383554559
 21
-0.707106463295111
  0
LINE
  8
1
 10
-13.3733451366425
 20
3.17891437617845E-07
 11
-12.6662383554559
 21
-0.707106463295111
  0
SOLID
  8
1
 10
-11.3733451366425
 20
-0.999999682108562
 11
-11.7268985272357
 21
-0.363603579040663
 12
-11.3733451366425
 22
-0.999999682108562
 13
-12.0097412397104
 23
-0.646446291515295
  0
SOLID
  8
1
 10
-12.3733451366425
 20
-0.999999682108562
 11
-12.7268985272357
 21
-0.363603579040663
 12
-12.3733451366425
 22
-0.999999682108562
 13
-13.0097412397104
 23
-0.646446291515295
  0
POLYLINE
  8
1
 66
1
  0
VERTEX
  8
1
 10
-6.04001180330912
 20
-4.49999968210856
  0
VERTEX
  8
1
 10
-6.04001180330912
 20
-6.49999968210856
  0
VERTEX
  8
1
 10
-4.04001180330912
 20
-6.49999968210856
  0
SEQEND
  8
1
  0
POLYLINE
  8
1
 66
1
  0
VERTEX
  8
1
 10
-6.04001180330912
 20
-0.499999682108562
  0
VERTEX
  8
1
 10
-6.04001180330912
 20
1.50000031789144
  0
VERTEX
  8
1
 10
-4.04001180330912
 20
1.50000031789144
  0
SEQEND
  8
1
  0
LINE
  8
1
 10
-7.04001180330912
 20
-0.999999682108562
 11
-6.04001180330912
 21
-3.49999968210856
  0
LINE
  8
1
 10
-6.04001180330912
 20
-1.49999968210856
 11
-6.04001180330912
 21
-0.499999682108562
  0
LINE
  8
1
 10
-6.04001180330912
 20
-3.49999968210856
 11
-6.04001180330912
 21
-4.49999968210856
  0
TEXT
  8
1
 40
1.8
 41
0.75
  1
ET
  7
STANDARD
 73
3
 10
13.3773787021637
 20
-0.499479166666668
 11
13.3773787021637
 21
-0.499479166666668
  0
LINE
  8
1
 10
4.95998819669088
 20
-2.49999968210856
 11
5.95998819669088
 21
-2.49999968210856
  0
LINE
  8
1
 10
9.95998819669088
 20
-2.49999968210856
 11
12.9599881966909
 21
-2.49999968210856
  0
LINE
  8
1
 10
9.45998819669088
 20
-1.49999968210856
 11
6.95998819669088
 21
-2.49999968210856
  0
LINE
  8
1
 10
8.95998819669088
 20
-2.49999968210856
 11
9.95998819669088
 21
-2.49999968210856
  0
LINE
  8
1
 10
6.95998819669088
 20
-2.49999968210856
 11
5.95998819669088
 21
-2.49999968210856
  0
ENDBLK
  8
0
  0
ENDSEC
  0
SECTION
  2
ENTITIES
  0
INSERT
  8
1
  2
B3222_00991648
 10
18.0400118033091
 20
8.49999968210856
  0
ENDSEC
  0
EOF
