  0
SECTION
  2
HEADER
  9
$LIMMIN
 10
0
 20
0
  9
$LIMMAX
 10
52.5
 20
74.25
  9
$EXTMIN
 10
0
 20
33.9909749031067
  9
$EXTMAX
 10
0
 20
12.9010407924652
  0
ENDSEC
  0
SECTION
  2
TABLES
  0
TABLE
  2
LTYPE
 70
9
  0
LTYPE
  2
CONTINUOUS
 70
64
  3
Solid line
 72
65
 73
0
 40
0
  0
LTYPE
  2
DASHED
 70
64
  3
__ __ __ __ __ __ __ __ __
 72
65
 73
2
 40
0.75
 49
0.5
 49
-0.25
  0
LTYPE
  2
DOT
 70
64
  3
...........................
 72
65
 73
2
 40
0.25
 49
0
 49
-0.25
  0
LTYPE
  2
DASHDOT
 70
64
  3
__ . __ . __ . __ . __ . __ . 
 72
65
 73
4
 40
1
 49
0.5
 49
-0.25
 49
0
 49
-0.25
  0
ENDTAB
  0
TABLE
  2
LAYER
 70
10
  0
LAYER
  2
1
 70
0
 62
7
  6
CONTINUOUS
  0
LAYER
  2
CONNECTIONS
 70
0
 62
-7
  6
CONTINUOUS
  0
ENDTAB
  0
ENDSEC
  0
SECTION
  2
BLOCKS
  0
BLOCK
  8
0
  2
TRICON
 70
0
 10
0
 20
0
  0
POLYLINE
  8
1
 70
1
 66
1
 40
0.5
 41
0.5
  0
VERTEX
  8
1
 10
-0.25
 20
0
 42
1
  0
VERTEX
  8
1
 10
0.25
 20
0
 42
1
  0
SEQEND
  8
1
  0
ENDBLK
  8
0
  0
BLOCK
  8
0
  2
TRICONSMALL
 70
0
 10
0
 20
0
  0
POLYLINE
  8
1
 70
1
 66
1
 40
0.25
 41
0.25
  0
VERTEX
  8
1
 10
-0.125
 20
0
 42
1
  0
VERTEX
  8
1
 10
0.125
 20
0
 42
1
  0
SEQEND
  8
1
  0
ENDBLK
  8
0
  0
BLOCK
  8
0
  2
TRICONCIRCLE
 70
0
 10
0
 20
0
  0
CIRCLE
  8
1
 10
0
 20
0
 40
0.5
  0
ENDBLK
  8
0
  0
BLOCK
  8
0
  2
LCBP0
 70
0
 10
0
 20
0
  0
LINE
  8
1
 10
0
 20
-0.46875
 11
0
 21
0.46875
  0
ENDBLK
  8
0
  0
BLOCK
  8
0
  2
LCBP1
 70
0
 10
0
 20
0
  0
LINE
  8
1
 10
0
 20
-0.625
 11
0
 21
0.625
  0
ENDBLK
  8
0
  0
BLOCK
  8
0
  2
LCBP2
 70
0
 10
0
 20
0
  0
LINE
  8
1
 10
0
 20
-0.9375
 11
0
 21
0.9375
  0
ENDBLK
  8
0
  0
BLOCK
  8
0
  2
LCA1
 70
0
 10
0
 20
0
  0
SOLID
  8
1
 62
7 
 10
0
 20
0
 11
-1.4
 21
-0.275
 12
-1.4
 22
0.275
 13
-1.4
 23
0.275
  0
ENDBLK
  8
0
  0
BLOCK
  8
0
  2
LCA2
 70
0
 10
0
 20
0
  0
SOLID
  8
1
 62
7 
 10
0
 20
0
 11
-1.65
 21
-0.525
 12
-1.65
 22
0.525
 13
-1.65
 23
0.525
  0
ENDBLK
  8
0
  0
BLOCK
  8
0
  2
LCA3
 70
0
 10
0
 20
0
  0
SOLID
  8
1
 62
7 
 10
0
 20
0
 11
-2.15
 21
-1.15
 12
-2.15
 22
1.15
 13
-2.15
 23
1.15
  0
ENDBLK
  8
0
  0
BLOCK
  8
0
  2
LCA1R
 70
0
 10
0
 20
0
  0
SOLID
  8
1
 62
7 
 10
0
 20
0
 11
1.4
 21
-0.275
 12
1.4
 22
0.275
 13
1.4
 23
0.275
  0
ENDBLK
  8
0
  0
BLOCK
  8
0
  2
LCA2R
 70
0
 10
0
 20
0
  0
SOLID
  8
1
 62
7 
 10
0
 20
0
 11
1.65
 21
-0.525
 12
1.65
 22
0.525
 13
1.65
 23
0.525
  0
ENDBLK
  8
0
  0
BLOCK
  8
0
  2
LCA3R
 70
0
 10
0
 20
0
  0
SOLID
  8
1
 62
7 
 10
0
 20
0
 11
2.15
 21
-1.15
 12
2.15
 22
1.15
 13
2.15
 23
1.15
  0
ENDBLK
  8
0
  0
BLOCK
  8
0
  2
B3366_00991642
 70
0
 10
0
 20
0
  0
TEXT
  8
1
 40
1.8
 41
0.75
  1
Test
  7
STANDARD
 72
2
 73
2
 10
-10.5045127868652
 20
-0.549479166666667
 11
-10.5045127868652
 21
-0.549479166666667
  0
TEXT
  8
1
 40
1.8
 41
0.75
  1
-
  7
STANDARD
 71
2
 72
2
 10
-10.5045127868652
 20
-5.55052019755045
 11
-10.5045127868652
 21
-5.55052019755045
  0
TEXT
  8
1
 40
1.8
 41
0.75
  1
+
  7
STANDARD
 71
2
 72
2
 10
-9.98760398228963
 20
2.62526057561239
 11
-9.98760398228963
 21
2.62526057561239
  0
TEXT
  8
1
 40
1.8
 41
0.75
  1
BU (3)
  7
STANDARD
 72
2
 10
7.14547952016195
 20
-4.09999968210856
 11
7.14547952016195
 21
-4.09999968210856
  0
TEXT
  8
1
 40
1.8
 41
0.75
  1
BN (1)
  7
STANDARD
 72
2
 10
7.14547952016195
 20
3.90000031789144
 11
7.14547952016195
 21
3.90000031789144
  0
TEXT
  8
1
 40
1.8
 41
0.75
  1
BK (3)
  7
STANDARD
 72
2
 10
7.14547952016195
 20
-0.099999682108561
 11
7.14547952016195
 21
-0.099999682108561
  0
LINE
  8
1
 10
6.99548721313477
 20
-4.54947916666667
 11
-0.604512786865232
 21
-4.54947916666667
  0
LINE
  8
1
 10
6.99548721313477
 20
-0.549479166666667
 11
-0.604512786865232
 21
-0.549479166666667
  0
LINE
  8
1
 10
6.99548721313477
 20
3.45052083333333
 11
-0.604512786865232
 21
3.45052083333333
  0
CIRCLE
  8
1
 10
-1.00451278686523
 20
-0.549479166666667
 40
0.4
  0
CIRCLE
  8
1
 10
-1.00451278686523
 20
3.45052083333333
 40
0.4
  0
LINE
  8
1
 10
-0.504512786865234
 20
-4.54947916666667
 11
-0.604512786865238
 21
-4.54947916666667
  0
CIRCLE
  8
1
 10
-1.00451278686523
 20
-4.54947916666667
 40
0.4
  0
LINE
  8
1
 10
12.2883804319482
 20
1.45052083333333
 11
12.9954872131348
 21
2.15762761451987
  0
SOLID
  8
1
 10
13.2883804319482
 20
2.45052083333333
 11
12.6519843288803
 21
2.09696744274006
 12
13.2883804319482
 22
2.45052083333333
 13
12.9348270413549
 23
1.81412473026544
  0
LINE
  8
1
 10
12.9954872131348
 20
0.743414052146786
 11
13.7025939943213
 21
1.45052083333333
  0
SOLID
  8
1
 10
13.9954872131348
 20
1.74341405214679
 11
13.3590911100669
 21
1.38986066155351
 12
13.9954872131348
 22
1.74341405214679
 13
13.6419338225415
 23
1.10701794907889
  0
LINE
  8
1
 10
11.9954872131348
 20
0.16833091783811
 11
11.9954872131348
 21
1.45052083333333
  0
POLYLINE
  8
1
 66
1
  0
VERTEX
  8
1
 10
11.9954872131348
 20
-1.54947916666667
  0
VERTEX
  8
1
 10
10.9954872131348
 20
0.150520833333333
  0
VERTEX
  8
1
 10
12.9954872131348
 20
0.150520833333333
  0
VERTEX
  8
1
 10
11.9954872131348
 20
-1.54947916666667
  0
SEQEND
  8
1
  0
LINE
  8
1
 10
10.9954872131348
 20
-1.54947916666667
 11
12.9954872131348
 21
-1.54947916666667
  0
LINE
  8
1
 10
11.9954872131348
 20
-1.54947916666667
 11
11.9954872131348
 21
-2.54947916666667
  0
LINE
  8
1
 10
-9.98760398228963
 20
-4.54947916666667
 11
-1.40451278686523
 21
-4.54947916666667
  0
LINE
  8
1
 10
-9.98760398228963
 20
-0.549479166666667
 11
-1.40451278686523
 21
-0.549479166666667
  0
LINE
  8
1
 10
-9.98760398228963
 20
3.45052083333333
 11
-1.40451278686523
 21
3.45052083333333
  0
POLYLINE
  8
1
 66
1
  0
VERTEX
  8
1
 10
6.99548721313477
 20
-4.54947916666667
  0
VERTEX
  8
1
 10
11.9954872131348
 20
-4.54947916666667
  0
VERTEX
  8
1
 10
11.9954872131348
 20
-2.54947916666667
  0
SEQEND
  8
1
  0
POLYLINE
  8
1
 66
1
  0
VERTEX
  8
1
 10
6.99548721313477
 20
3.45052083333333
  0
VERTEX
  8
1
 10
11.9954872131348
 20
3.45052083333333
  0
VERTEX
  8
1
 10
11.9954872131348
 20
1.45052083333333
  0
SEQEND
  8
1
  0
POLYLINE
  8
1
 66
1
  0
VERTEX
  8
1
 10
6.99548721313477
 20
4.45052083333333
  0
VERTEX
  8
1
 10
16.9954872131348
 20
4.45052083333333
  0
VERTEX
  8
1
 10
16.9954872131348
 20
-5.54947916666667
  0
VERTEX
  8
1
 10
6.99548721313477
 20
-5.54947916666667
  0
VERTEX
  8
1
 10
6.99548721313477
 20
4.45052083333333
  0
SEQEND
  8
1
  0
ENDBLK
  8
0
  0
ENDSEC
  0
SECTION
  2
ENTITIES
  0
INSERT
  8
1
  2
B3366_00991642
 10
16.9954872131348
 20
6.45052019755046
  0
ENDSEC
  0
EOF
