  0
SECTION
  2
HEADER
  9
$LIMMIN
 10
0
 20
0
  9
$LIMMAX
 10
52.5
 20
74.25
  9
$EXTMIN
 10
0
 20
29.0969324111938
  9
$EXTMAX
 10
0
 20
12.622505994086
  0
ENDSEC
  0
SECTION
  2
TABLES
  0
TABLE
  2
LTYPE
 70
9
  0
LTYPE
  2
CONTINUOUS
 70
64
  3
Solid line
 72
65
 73
0
 40
0
  0
LTYPE
  2
DASHED
 70
64
  3
__ __ __ __ __ __ __ __ __
 72
65
 73
2
 40
0.75
 49
0.5
 49
-0.25
  0
LTYPE
  2
DOT
 70
64
  3
...........................
 72
65
 73
2
 40
0.25
 49
0
 49
-0.25
  0
LTYPE
  2
DASHDOT
 70
64
  3
__ . __ . __ . __ . __ . __ . 
 72
65
 73
4
 40
1
 49
0.5
 49
-0.25
 49
0
 49
-0.25
  0
ENDTAB
  0
TABLE
  2
LAYER
 70
10
  0
LAYER
  2
1
 70
0
 62
7
  6
CONTINUOUS
  0
LAYER
  2
CONNECTIONS
 70
0
 62
-7
  6
CONTINUOUS
  0
ENDTAB
  0
ENDSEC
  0
SECTION
  2
BLOCKS
  0
BLOCK
  8
0
  2
TRICON
 70
0
 10
0
 20
0
  0
POLYLINE
  8
1
 70
1
 66
1
 40
0.5
 41
0.5
  0
VERTEX
  8
1
 10
-0.25
 20
0
 42
1
  0
VERTEX
  8
1
 10
0.25
 20
0
 42
1
  0
SEQEND
  8
1
  0
ENDBLK
  8
0
  0
BLOCK
  8
0
  2
TRICONSMALL
 70
0
 10
0
 20
0
  0
POLYLINE
  8
1
 70
1
 66
1
 40
0.25
 41
0.25
  0
VERTEX
  8
1
 10
-0.125
 20
0
 42
1
  0
VERTEX
  8
1
 10
0.125
 20
0
 42
1
  0
SEQEND
  8
1
  0
ENDBLK
  8
0
  0
BLOCK
  8
0
  2
TRICONCIRCLE
 70
0
 10
0
 20
0
  0
CIRCLE
  8
1
 10
0
 20
0
 40
0.5
  0
ENDBLK
  8
0
  0
BLOCK
  8
0
  2
LCBP0
 70
0
 10
0
 20
0
  0
LINE
  8
1
 10
0
 20
-0.46875
 11
0
 21
0.46875
  0
ENDBLK
  8
0
  0
BLOCK
  8
0
  2
LCBP1
 70
0
 10
0
 20
0
  0
LINE
  8
1
 10
0
 20
-0.625
 11
0
 21
0.625
  0
ENDBLK
  8
0
  0
BLOCK
  8
0
  2
LCBP2
 70
0
 10
0
 20
0
  0
LINE
  8
1
 10
0
 20
-0.9375
 11
0
 21
0.9375
  0
ENDBLK
  8
0
  0
BLOCK
  8
0
  2
LCA1
 70
0
 10
0
 20
0
  0
SOLID
  8
1
 62
7 
 10
0
 20
0
 11
-1.4
 21
-0.275
 12
-1.4
 22
0.275
 13
-1.4
 23
0.275
  0
ENDBLK
  8
0
  0
BLOCK
  8
0
  2
LCA2
 70
0
 10
0
 20
0
  0
SOLID
  8
1
 62
7 
 10
0
 20
0
 11
-1.65
 21
-0.525
 12
-1.65
 22
0.525
 13
-1.65
 23
0.525
  0
ENDBLK
  8
0
  0
BLOCK
  8
0
  2
LCA3
 70
0
 10
0
 20
0
  0
SOLID
  8
1
 62
7 
 10
0
 20
0
 11
-2.15
 21
-1.15
 12
-2.15
 22
1.15
 13
-2.15
 23
1.15
  0
ENDBLK
  8
0
  0
BLOCK
  8
0
  2
LCA1R
 70
0
 10
0
 20
0
  0
SOLID
  8
1
 62
7 
 10
0
 20
0
 11
1.4
 21
-0.275
 12
1.4
 22
0.275
 13
1.4
 23
0.275
  0
ENDBLK
  8
0
  0
BLOCK
  8
0
  2
LCA2R
 70
0
 10
0
 20
0
  0
SOLID
  8
1
 62
7 
 10
0
 20
0
 11
1.65
 21
-0.525
 12
1.65
 22
0.525
 13
1.65
 23
0.525
  0
ENDBLK
  8
0
  0
BLOCK
  8
0
  2
LCA3R
 70
0
 10
0
 20
0
  0
SOLID
  8
1
 62
7 
 10
0
 20
0
 11
2.15
 21
-1.15
 12
2.15
 22
1.15
 13
2.15
 23
1.15
  0
ENDBLK
  8
0
  0
BLOCK
  8
0
  2
B3111_00991638
 70
0
 10
0
 20
0
  0
POLYLINE
  8
1
 66
1
  0
VERTEX
  8
1
 10
-14.5484662055969
 20
4.31125343414373
  0
VERTEX
  8
1
 10
-4.54846620559692
 20
4.31125343414373
  0
VERTEX
  8
1
 10
-4.54846620559692
 20
-5.68874656585627
  0
VERTEX
  8
1
 10
-14.5484662055969
 20
-5.68874656585627
  0
VERTEX
  8
1
 10
-14.5484662055969
 20
4.31125343414373
  0
SEQEND
  8
1
  0
LINE
  8
1
 10
-4.54846620559692
 20
3.31125343414373
 11
0.0515337944030752
 21
3.31125343414373
  0
LINE
  8
1
 10
-4.54846620559692
 20
-0.688746565856273
 11
0.0515337944030752
 21
-0.688746565856273
  0
LINE
  8
1
 10
-4.54846620559692
 20
-4.68874656585627
 11
0.0515337944030752
 21
-4.68874656585627
  0
LINE
  8
1
 10
-0.0484662055969238
 20
-4.68874656585627
 11
0.05153379440308
 21
-4.68874656585627
  0
CIRCLE
  8
1
 10
0.451533794403076
 20
-4.68874656585627
 40
0.4
  0
CIRCLE
  8
1
 10
0.451533794403076
 20
-0.688746565856273
 40
0.4
  0
CIRCLE
  8
1
 10
0.451533794403076
 20
3.31125343414373
 40
0.4
  0
TEXT
  8
1
 40
1.8
 41
0.75
  1
-
  7
STANDARD
 72
2
 10
14.3110603610151
 20
-5.41125279836085
 11
14.3110603610151
 21
-5.41125279836085
  0
TEXT
  8
1
 40
1.8
 41
0.75
  1
+
  7
STANDARD
 72
2
 10
14.5484662055969
 20
2.21125343414373
 11
14.5484662055969
 21
2.21125343414373
  0
TEXT
  8
1
 40
1.8
 41
0.75
  1
BU
  7
STANDARD
 10
-4.54846620559692
 20
-4.23926708129817
  0
TEXT
  8
1
 40
1.8
 41
0.75
  1
BN
  7
STANDARD
 10
-4.54846620559692
 20
3.76073291870183
  0
TEXT
  8
1
 40
1.8
 41
0.75
  1
BK
  7
STANDARD
 10
-4.54846620559692
 20
-0.239267081298167
  0
LINE
  8
1
 10
0.851533794403071
 20
-4.68874656585627
 11
9.20153379440308
 21
-4.68874656585627
  0
LINE
  8
1
 10
4.45153379440308
 20
-0.688746565856273
 11
0.851533794403071
 21
-0.688746565856273
  0
LINE
  8
1
 10
0.851533794403071
 20
3.31125343414373
 11
11.4515337944031
 21
3.31125343414373
  0
LINE
  8
1
 10
9.45153379440308
 20
-0.688746565856273
 11
9.45153379440308
 21
-4.43874656585627
  0
LINE
  8
1
 10
9.70153379440308
 20
-4.68874656585627
 11
11.4515337944031
 21
-4.68874656585627
  0
CIRCLE
  8
1
 10
9.45153379440308
 20
-4.68874656585627
 40
0.25
  0
LINE
  8
1
 10
8.45153379440308
 20
-0.688746565856273
 11
9.45153379440308
 21
-0.688746565856273
  0
POLYLINE
  8
1
 66
1
  0
VERTEX
  8
1
 10
4.45153379440308
 20
-0.188746565856272
  0
VERTEX
  8
1
 10
8.45153379440308
 20
-0.188746565856272
  0
VERTEX
  8
1
 10
8.45153379440308
 20
-1.18874656585627
  0
VERTEX
  8
1
 10
4.45153379440308
 20
-1.18874656585627
  0
VERTEX
  8
1
 10
4.45153379440308
 20
-0.188746565856272
  0
SEQEND
  8
1
  0
TEXT
  8
1
 40
1.125
 41
0.75
  1
L
  7
STANDARD
 72
1
 10
7.66499980290731
 20
0.217178072256113
 11
7.66499980290731
 21
0.217178072256113
  0
TEXT
  8
1
 40
1.8
 41
0.75
  1
R
  7
STANDARD
 72
1
 10
5.95153379440307
 20
0.211253434143727
 11
5.95153379440307
 21
0.211253434143727
  0
LINE
  8
1
 10
-6.54846620559692
 20
-0.688746565856273
 11
-4.54846620559692
 21
-0.688746565856273
  0
LINE
  8
1
 10
-6.54846620559692
 20
3.31125343414373
 11
-4.54846620559692
 21
3.31125343414373
  0
LINE
  8
1
 10
-7.54846620559692
 20
2.81125343414373
 11
-6.54846620559692
 21
0.311253434143727
  0
LINE
  8
1
 10
-6.54846620559692
 20
2.31125343414373
 11
-6.54846620559692
 21
3.31125343414373
  0
LINE
  8
1
 10
-6.54846620559692
 20
0.311253434143727
 11
-6.54846620559692
 21
-0.688746565856273
  0
LINE
  8
1
  6
DOT
 10
-7.04846620559692
 20
1.31125343414373
 11
-11.0484662055969
 21
1.31125343414373
  0
LINE
  8
1
 10
-13.0484662055969
 20
3.81125343414373
 11
-12.3413594244104
 21
3.10414665295718
  0
LINE
  8
1
 10
-14.0484662055969
 20
3.81125343414373
 11
-13.3413594244104
 21
3.10414665295718
  0
SOLID
  8
1
 10
-12.0484662055969
 20
2.81125343414373
 11
-12.4020195961902
 21
3.44764953721163
 12
-12.0484662055969
 22
2.81125343414373
 13
-12.6848623086648
 23
3.164806824737
  0
SOLID
  8
1
 10
-13.0484662055969
 20
2.81125343414373
 11
-13.4020195961902
 21
3.44764953721163
 12
-13.0484662055969
 22
2.81125343414373
 13
-13.6848623086648
 23
3.164806824737
  0
LINE
  8
1
 10
-11.5484662055969
 20
2.0290635186485
 11
-11.5484662055969
 21
3.31125343414373
  0
POLYLINE
  8
1
 66
1
  0
VERTEX
  8
1
 10
-11.5484662055969
 20
0.311253434143728
  0
VERTEX
  8
1
 10
-12.5484662055969
 20
2.01125343414373
  0
VERTEX
  8
1
 10
-10.5484662055969
 20
2.01125343414373
  0
VERTEX
  8
1
 10
-11.5484662055969
 20
0.311253434143728
  0
SEQEND
  8
1
  0
LINE
  8
1
 10
-12.5484662055969
 20
0.311253434143727
 11
-10.5484662055969
 21
0.311253434143727
  0
LINE
  8
1
 10
-11.5484662055969
 20
0.311253434143727
 11
-11.5484662055969
 21
-0.688746565856273
  0
TEXT
  8
1
 40
1.8
 41
0.75
  1
PNP
  7
STANDARD
 10
-13.0484662055969
 20
-4.78874656585627
  0
ENDBLK
  8
0
  0
ENDSEC
  0
SECTION
  2
ENTITIES
  0
INSERT
  8
1
  2
B3111_00991638
 10
14.5484662055969
 20
6.31125279836085
  0
ENDSEC
  0
EOF
