  0
SECTION
  2
HEADER
  9
$LIMMIN
 10
0
 20
0
  9
$LIMMAX
 10
52.5
 20
74.25
  9
$EXTMIN
 10
0
 20
49.5707819461823
  9
$EXTMAX
 10
0
 20
33.3722324371338
  0
ENDSEC
  0
SECTION
  2
TABLES
  0
TABLE
  2
LTYPE
 70
9
  0
LTYPE
  2
CONTINUOUS
 70
64
  3
Solid line
 72
65
 73
0
 40
0
  0
LTYPE
  2
DASHED
 70
64
  3
__ __ __ __ __ __ __ __ __
 72
65
 73
2
 40
0.75
 49
0.5
 49
-0.25
  0
LTYPE
  2
DOT
 70
64
  3
...........................
 72
65
 73
2
 40
0.25
 49
0
 49
-0.25
  0
LTYPE
  2
DASHDOT
 70
64
  3
__ . __ . __ . __ . __ . __ . 
 72
65
 73
4
 40
1
 49
0.5
 49
-0.25
 49
0
 49
-0.25
  0
ENDTAB
  0
TABLE
  2
LAYER
 70
10
  0
LAYER
  2
1
 70
0
 62
7
  6
CONTINUOUS
  0
LAYER
  2
CONNECTIONS
 70
0
 62
-7
  6
CONTINUOUS
  0
ENDTAB
  0
ENDSEC
  0
SECTION
  2
BLOCKS
  0
BLOCK
  8
0
  2
TRICON
 70
0
 10
0
 20
0
  0
POLYLINE
  8
1
 70
1
 66
1
 40
0.5
 41
0.5
  0
VERTEX
  8
1
 10
-0.25
 20
0
 42
1
  0
VERTEX
  8
1
 10
0.25
 20
0
 42
1
  0
SEQEND
  8
1
  0
ENDBLK
  8
0
  0
BLOCK
  8
0
  2
TRICONSMALL
 70
0
 10
0
 20
0
  0
POLYLINE
  8
1
 70
1
 66
1
 40
0.25
 41
0.25
  0
VERTEX
  8
1
 10
-0.125
 20
0
 42
1
  0
VERTEX
  8
1
 10
0.125
 20
0
 42
1
  0
SEQEND
  8
1
  0
ENDBLK
  8
0
  0
BLOCK
  8
0
  2
TRICONCIRCLE
 70
0
 10
0
 20
0
  0
CIRCLE
  8
1
 10
0
 20
0
 40
0.5
  0
ENDBLK
  8
0
  0
BLOCK
  8
0
  2
LCBP0
 70
0
 10
0
 20
0
  0
LINE
  8
1
 10
0
 20
-0.46875
 11
0
 21
0.46875
  0
ENDBLK
  8
0
  0
BLOCK
  8
0
  2
LCBP1
 70
0
 10
0
 20
0
  0
LINE
  8
1
 10
0
 20
-0.625
 11
0
 21
0.625
  0
ENDBLK
  8
0
  0
BLOCK
  8
0
  2
LCBP2
 70
0
 10
0
 20
0
  0
LINE
  8
1
 10
0
 20
-0.9375
 11
0
 21
0.9375
  0
ENDBLK
  8
0
  0
BLOCK
  8
0
  2
LCA1
 70
0
 10
0
 20
0
  0
SOLID
  8
1
 62
7 
 10
0
 20
0
 11
-1.4
 21
-0.275
 12
-1.4
 22
0.275
 13
-1.4
 23
0.275
  0
ENDBLK
  8
0
  0
BLOCK
  8
0
  2
LCA2
 70
0
 10
0
 20
0
  0
SOLID
  8
1
 62
7 
 10
0
 20
0
 11
-1.65
 21
-0.525
 12
-1.65
 22
0.525
 13
-1.65
 23
0.525
  0
ENDBLK
  8
0
  0
BLOCK
  8
0
  2
LCA3
 70
0
 10
0
 20
0
  0
SOLID
  8
1
 62
7 
 10
0
 20
0
 11
-2.15
 21
-1.15
 12
-2.15
 22
1.15
 13
-2.15
 23
1.15
  0
ENDBLK
  8
0
  0
BLOCK
  8
0
  2
LCA1R
 70
0
 10
0
 20
0
  0
SOLID
  8
1
 62
7 
 10
0
 20
0
 11
1.4
 21
-0.275
 12
1.4
 22
0.275
 13
1.4
 23
0.275
  0
ENDBLK
  8
0
  0
BLOCK
  8
0
  2
LCA2R
 70
0
 10
0
 20
0
  0
SOLID
  8
1
 62
7 
 10
0
 20
0
 11
1.65
 21
-0.525
 12
1.65
 22
0.525
 13
1.65
 23
0.525
  0
ENDBLK
  8
0
  0
BLOCK
  8
0
  2
LCA3R
 70
0
 10
0
 20
0
  0
SOLID
  8
1
 62
7 
 10
0
 20
0
 11
2.15
 21
-1.15
 12
2.15
 22
1.15
 13
2.15
 23
1.15
  0
ENDBLK
  8
0
  0
BLOCK
  8
0
  2
B3164_00991617
 70
0
 10
0
 20
0
  0
POLYLINE
  8
1
 66
1
  0
VERTEX
  8
1
 10
-24.7853910128276
 20
15.6861166159312
  0
VERTEX
  8
1
 10
-4.78539101282755
 20
15.6861166159312
  0
VERTEX
  8
1
 10
-4.78539101282755
 20
-16.3138833840688
  0
VERTEX
  8
1
 10
-24.7853910128276
 20
-16.3138833840688
  0
VERTEX
  8
1
 10
-24.7853910128276
 20
15.6861166159312
  0
SEQEND
  8
1
  0
TEXT
  8
1
 40
1.8
 41
0.75
  1
7
  7
STANDARD
 10
-4.78539101282755
 20
-13.8644038995107
  0
TEXT
  8
1
 40
1.8
 41
0.75
  1
3
  7
STANDARD
 10
-4.78539101282755
 20
-9.8644038995107
  0
TEXT
  8
1
 40
1.8
 41
0.75
  1
4
  7
STANDARD
 10
-4.78539101282755
 20
-5.8644038995107
  0
TEXT
  8
1
 40
1.8
 41
0.75
  1
8
  7
STANDARD
 10
-4.78539101282755
 20
-1.8644038995107
  0
TEXT
  8
1
 40
1.8
 41
0.75
  1
6
  7
STANDARD
 10
-4.78539101282755
 20
2.1355961004893
  0
TEXT
  8
1
 40
1.8
 41
0.75
  1
5
  7
STANDARD
 10
-4.78539101282755
 20
6.1355961004893
  0
TEXT
  8
1
 40
1.8
 41
0.75
  1
1
  7
STANDARD
 10
-4.78539101282755
 20
10.1355961004893
  0
TEXT
  8
1
 40
1.8
 41
0.75
  1
2
  7
STANDARD
 10
-4.78539101282755
 20
14.1355961004893
  0
TEXT
  8
1
 40
1.8
 41
0.75
  1
GN
  7
STANDARD
 10
0.214608987172445
 20
-9.8644038995107
  0
TEXT
  8
1
 40
1.8
 41
0.75
  1
YE
  7
STANDARD
 10
0.214608987172445
 20
-5.8644038995107
  0
TEXT
  8
1
 40
1.8
 41
0.75
  1
RD
  7
STANDARD
 10
0.214608987172445
 20
-1.8644038995107
  0
TEXT
  8
1
 40
1.8
 41
0.75
  1
PK
  7
STANDARD
 10
0.214608987172445
 20
2.1355961004893
  0
TEXT
  8
1
 40
1.8
 41
0.75
  1
GY
  7
STANDARD
 10
0.214608987172445
 20
6.1355961004893
  0
TEXT
  8
1
 40
1.8
 41
0.75
  1
BU
  7
STANDARD
 10
0.214608987172445
 20
-13.8644038995107
  0
TEXT
  8
1
 40
1.8
 41
0.75
  1
WH
  7
STANDARD
 10
0.214608987172445
 20
10.1355961004893
  0
TEXT
  8
1
 40
1.8
 41
0.75
  1
BN
  7
STANDARD
 10
0.214608987172445
 20
14.1355961004893
  0
LINE
  8
1
 10
-4.78539101282755
 20
-14.3138833840688
 11
-1.78539101282756
 21
-14.3138833840688
  0
LINE
  8
1
 10
-4.78539101282755
 20
-10.3138833840688
 11
-1.78539101282756
 21
-10.3138833840688
  0
LINE
  8
1
 10
-4.78539101282755
 20
-6.31388338406881
 11
-1.78539101282756
 21
-6.31388338406881
  0
LINE
  8
1
 10
-4.78539101282755
 20
-2.31388338406881
 11
-1.78539101282756
 21
-2.31388338406881
  0
LINE
  8
1
 10
-4.78539101282755
 20
1.68611661593119
 11
-1.78539101282756
 21
1.68611661593119
  0
LINE
  8
1
 10
-4.78539101282755
 20
5.68611661593119
 11
-1.78539101282756
 21
5.68611661593119
  0
LINE
  8
1
 10
-4.78539101282755
 20
9.68611661593119
 11
-1.78539101282756
 21
9.68611661593119
  0
LINE
  8
1
 10
-4.78539101282755
 20
13.6861166159312
 11
-1.78539101282756
 21
13.6861166159312
  0
SOLID
  8
1
 10
-1.78539101282756
 20
1.93611661593119
 11
-0.285391012827555
 21
1.93611661593119
 12
-1.78539101282756
 22
1.43611661593119
 13
-0.285391012827555
 23
1.43611661593119
  0
SOLID
  8
1
 10
-0.285391012827555
 20
1.43611661593119
 11
-1.78539101282756
 21
1.43611661593119
 12
-1.78539101282756
 22
1.43611661593119
 13
-1.78539101282756
 23
1.93611661593119
  0
SOLID
  8
1
 10
-1.78539101282756
 20
5.93611661593119
 11
-0.285391012827555
 21
5.93611661593119
 12
-1.78539101282756
 22
5.43611661593119
 13
-0.285391012827555
 23
5.43611661593119
  0
SOLID
  8
1
 10
-0.285391012827555
 20
5.43611661593119
 11
-1.78539101282756
 21
5.43611661593119
 12
-1.78539101282756
 22
5.43611661593119
 13
-1.78539101282756
 23
5.93611661593119
  0
SOLID
  8
1
 10
-1.78539101282756
 20
9.93611661593119
 11
-0.285391012827555
 21
9.93611661593119
 12
-1.78539101282756
 22
9.43611661593119
 13
-0.285391012827555
 23
9.43611661593119
  0
SOLID
  8
1
 10
-0.285391012827555
 20
9.43611661593119
 11
-1.78539101282756
 21
9.43611661593119
 12
-1.78539101282756
 22
9.43611661593119
 13
-1.78539101282756
 23
9.93611661593119
  0
SOLID
  8
1
 10
-1.78539101282756
 20
13.9361166159312
 11
-0.285391012827555
 21
13.9361166159312
 12
-1.78539101282756
 22
13.4361166159312
 13
-0.285391012827555
 23
13.4361166159312
  0
SOLID
  8
1
 10
-0.285391012827555
 20
13.4361166159312
 11
-1.78539101282756
 21
13.4361166159312
 12
-1.78539101282756
 22
13.4361166159312
 13
-1.78539101282756
 23
13.9361166159312
  0
SOLID
  8
1
 10
-1.78539101282756
 20
-14.0638833840688
 11
-0.285391012827555
 21
-14.0638833840688
 12
-1.78539101282756
 22
-14.5638833840688
 13
-0.285391012827555
 23
-14.5638833840688
  0
SOLID
  8
1
 10
-0.285391012827555
 20
-14.5638833840688
 11
-1.78539101282756
 21
-14.5638833840688
 12
-1.78539101282756
 22
-14.5638833840688
 13
-1.78539101282756
 23
-14.0638833840688
  0
SOLID
  8
1
 10
-1.78539101282756
 20
-10.0638833840688
 11
-0.285391012827555
 21
-10.0638833840688
 12
-1.78539101282756
 22
-10.5638833840688
 13
-0.285391012827555
 23
-10.5638833840688
  0
SOLID
  8
1
 10
-0.285391012827555
 20
-10.5638833840688
 11
-1.78539101282756
 21
-10.5638833840688
 12
-1.78539101282756
 22
-10.5638833840688
 13
-1.78539101282756
 23
-10.0638833840688
  0
SOLID
  8
1
 10
-1.78539101282756
 20
-6.06388338406881
 11
-0.285391012827555
 21
-6.06388338406881
 12
-1.78539101282756
 22
-6.56388338406881
 13
-0.285391012827555
 23
-6.56388338406881
  0
SOLID
  8
1
 10
-0.285391012827555
 20
-6.56388338406881
 11
-1.78539101282756
 21
-6.56388338406881
 12
-1.78539101282756
 22
-6.56388338406881
 13
-1.78539101282756
 23
-6.06388338406881
  0
SOLID
  8
1
 10
-1.78539101282756
 20
-2.06388338406881
 11
-0.285391012827555
 21
-2.06388338406881
 12
-1.78539101282756
 22
-2.56388338406881
 13
-0.285391012827555
 23
-2.56388338406881
  0
SOLID
  8
1
 10
-0.285391012827555
 20
-2.56388338406881
 11
-1.78539101282756
 21
-2.56388338406881
 12
-1.78539101282756
 22
-2.56388338406881
 13
-1.78539101282756
 23
-2.06388338406881
  0
LINE
  8
1
 10
0.214608987172445
 20
13.6861166159312
 11
1.21460898717244
 21
13.6861166159312
  0
ARC
  8
1
 10
-0.785391012827555
 20
13.6861166159312
 40
1
 50
270
 51
90
  0
LINE
  8
1
 10
0.214608987172445
 20
1.68611661593119
 11
1.21460898717244
 21
1.68611661593119
  0
ARC
  8
1
 10
-0.785391012827555
 20
1.68611661593119
 40
1
 50
270
 51
90
  0
LINE
  8
1
 10
0.214608987172445
 20
5.68611661593119
 11
1.21460898717244
 21
5.68611661593119
  0
ARC
  8
1
 10
-0.785391012827555
 20
5.68611661593119
 40
1
 50
270
 51
90
  0
LINE
  8
1
 10
0.214608987172445
 20
9.68611661593119
 11
1.21460898717244
 21
9.68611661593119
  0
ARC
  8
1
 10
-0.785391012827555
 20
9.68611661593119
 40
1
 50
270
 51
90
  0
LINE
  8
1
 10
0.214608987172445
 20
-2.31388338406881
 11
1.21460898717244
 21
-2.31388338406881
  0
ARC
  8
1
 10
-0.785391012827555
 20
-2.31388338406881
 40
1
 50
270
 51
90
  0
LINE
  8
1
 10
0.214608987172445
 20
-14.3138833840688
 11
1.21460898717244
 21
-14.3138833840688
  0
ARC
  8
1
 10
-0.785391012827555
 20
-14.3138833840688
 40
1
 50
270
 51
90
  0
LINE
  8
1
 10
0.214608987172445
 20
-10.3138833840688
 11
1.21460898717244
 21
-10.3138833840688
  0
ARC
  8
1
 10
-0.785391012827555
 20
-10.3138833840688
 40
1
 50
270
 51
90
  0
LINE
  8
1
 10
0.214608987172445
 20
-6.31388338406881
 11
1.21460898717244
 21
-6.31388338406881
  0
ARC
  8
1
 10
-0.785391012827555
 20
-6.31388338406881
 40
1
 50
270
 51
90
  0
POLYLINE
  8
1
  6
DASHED
 66
1
  0
VERTEX
  8
1
 10
-7.18537818847498
 20
7.68611661593119
  0
VERTEX
  8
1
 10
-13.7853910128276
 20
7.68611661593119
  0
VERTEX
  8
1
 10
-13.7853910128276
 20
-0.313883384068809
  0
VERTEX
  8
1
 10
-11.1854035982171
 20
-0.313883384068809
  0
SEQEND
  8
1
  0
LINE
  8
1
  6
DASHED
 10
-9.1853779495119
 20
3.68611661593119
 11
-16.1971439735959
 21
3.68611661593119
  0
LINE
  8
1
 10
-16.7853910128276
 20
4.40392670043597
 11
-16.7853910128276
 21
5.68611661593119
  0
POLYLINE
  8
1
 66
1
  0
VERTEX
  8
1
 10
-16.7853910128276
 20
2.68611661593119
  0
VERTEX
  8
1
 10
-17.7853910128276
 20
4.38611661593119
  0
VERTEX
  8
1
 10
-15.7853910128276
 20
4.38611661593119
  0
VERTEX
  8
1
 10
-16.7853910128276
 20
2.68611661593119
  0
SEQEND
  8
1
  0
LINE
  8
1
 10
-17.7853910128276
 20
2.68611661593119
 11
-15.7853910128276
 21
2.68611661593119
  0
LINE
  8
1
 10
-16.7853910128276
 20
2.68611661593119
 11
-16.7853910128276
 21
1.68611661593119
  0
SOLID
  8
1
 10
-18.4117872372336
 20
6.02956887250859
 11
-18.0582338466404
 21
5.39317276944069
 12
-18.4117872372336
 22
6.02956887250859
 13
-17.7753911341658
 23
5.67601548191532
  0
LINE
  8
1
 10
-17.4117872372336
 20
5.02956887250859
 11
-18.1188940184202
 21
5.73667565369514
  0
LINE
  8
1
 10
-19.421812429734
 20
6.03964469268594
 11
-18.7147056485474
 21
5.33253791149939
  0
SOLID
  8
1
 10
-18.421812429734
 20
5.03964469268594
 11
-18.7753658203272
 21
5.67604079575384
 12
-18.421812429734
 22
5.03964469268594
 13
-19.0582085328019
 23
5.39319808327921
  0
LINE
  8
1
 10
-6.78539101282755
 20
9.68611661593119
 11
-6.78539101282755
 21
13.6861166159312
  0
LINE
  8
1
 10
-8.78539101282755
 20
5.68611661593119
 11
-8.78539101282755
 21
13.6861166159312
  0
POLYLINE
  8
1
 66
1
  0
VERTEX
  8
1
 10
-6.78539101282755
 20
5.68611661593119
  0
VERTEX
  8
1
 10
-6.78539101282755
 20
1.68611661593119
  0
VERTEX
  8
1
 10
-4.78539101282755
 20
1.68611661593119
  0
SEQEND
  8
1
  0
POLYLINE
  8
1
 66
1
  0
VERTEX
  8
1
 10
-8.78539101282755
 20
1.68611661593119
  0
VERTEX
  8
1
 10
-8.78539101282755
 20
-6.31388338406881
  0
VERTEX
  8
1
 10
-4.78539101282755
 20
-6.31388338406881
  0
SEQEND
  8
1
  0
POLYLINE
  8
1
 66
1
  0
VERTEX
  8
1
 10
-10.7853910128276
 20
-2.31388338406881
  0
VERTEX
  8
1
 10
-10.7853910128276
 20
-10.3138833840688
  0
VERTEX
  8
1
 10
-4.78539101282755
 20
-10.3138833840688
  0
SEQEND
  8
1
  0
POLYLINE
  8
1
 66
1
  0
VERTEX
  8
1
 10
-4.78539101282755
 20
13.6861166159312
  0
VERTEX
  8
1
 10
-10.7853910128276
 20
13.6861166159312
  0
VERTEX
  8
1
 10
-10.7853910128276
 20
1.68611661593119
  0
SEQEND
  8
1
  0
LINE
  8
1
 10
-11.7853910128276
 20
1.18611661593119
 11
-10.7853910128276
 21
-1.31388338406881
  0
LINE
  8
1
 10
-10.7853910128276
 20
0.686116615931191
 11
-10.7853910128276
 21
1.68611661593119
  0
LINE
  8
1
 10
-10.7853910128276
 20
-1.31388338406881
 11
-10.7853910128276
 21
-2.31388338406881
  0
LINE
  8
1
 10
-9.78539101282755
 20
5.18611661593119
 11
-8.78539101282755
 21
2.68611661593119
  0
LINE
  8
1
 10
-8.78539101282755
 20
4.68611661593119
 11
-8.78539101282755
 21
5.68611661593119
  0
LINE
  8
1
 10
-8.78539101282755
 20
2.68611661593119
 11
-8.78539101282755
 21
1.68611661593119
  0
LINE
  8
1
 10
-7.78539101282755
 20
9.18611661593119
 11
-6.78539101282755
 21
6.68611661593119
  0
LINE
  8
1
 10
-6.78539101282755
 20
8.68611661593119
 11
-6.78539101282755
 21
9.68611661593119
  0
LINE
  8
1
 10
-6.78539101282755
 20
6.68611661593119
 11
-6.78539101282755
 21
5.68611661593119
  0
TEXT
  8
1
 40
1.125
 41
0.75
  1
L1
  7
STANDARD
 72
1
 10
10.4311818552957
 20
-9.40795874595642
 11
10.4311818552957
 21
-9.40795874595642
  0
TEXT
  8
1
 40
1.125
 41
0.75
  1
L2
  7
STANDARD
 72
1
 10
10.4280749956767
 20
-5.40795874595642
 11
10.4280749956767
 21
-5.40795874595642
  0
TEXT
  8
1
 40
1.125
 41
0.75
  1
L3
  7
STANDARD
 72
1
 10
10.4280749956767
 20
2.59204125404358
 11
10.4280749956767
 21
2.59204125404358
  0
TEXT
  8
1
 40
2.475
 41
0.75
  1
+
  7
STANDARD
 73
2
 10
21.2146089871724
 20
13.6861166159312
 11
21.2146089871724
 21
13.6861166159312
  0
TEXT
  8
1
 40
2.475
 41
0.75
  1
-
  7
STANDARD
 73
2
 10
21.2146089871724
 20
-14.3138833840688
 11
21.2146089871724
 21
-14.3138833840688
  0
LINE
  8
1
 10
16.4177158467915
 20
-14.3138833840688
 11
21.2146089871724
 21
-14.3138833840688
  0
LINE
  8
1
 10
21.2146089871724
 20
13.6861166159312
 11
14.4177158467915
 21
13.6861166159312
  0
LINE
  8
1
 10
1.21460898717244
 20
5.68611661593119
 11
7.21460898717244
 21
5.68611661593119
  0
LINE
  8
1
 10
1.21460898717244
 20
9.68611661593119
 11
7.21460898717244
 21
9.68611661593119
  0
LINE
  8
1
 10
10.7146089871724
 20
6.68611661593119
 11
8.21460898717244
 21
5.68611661593119
  0
LINE
  8
1
 10
10.2146089871724
 20
5.68611661593119
 11
11.2146089871724
 21
5.68611661593119
  0
LINE
  8
1
 10
8.21460898717244
 20
5.68611661593119
 11
7.21460898717244
 21
5.68611661593119
  0
LINE
  8
1
 10
10.7146089871724
 20
10.6861166159312
 11
8.21460898717244
 21
9.68611661593119
  0
LINE
  8
1
 10
10.2146089871724
 20
9.68611661593119
 11
11.2146089871724
 21
9.68611661593119
  0
LINE
  8
1
 10
8.21460898717244
 20
9.68611661593119
 11
7.21460898717244
 21
9.68611661593119
  0
LINE
  8
1
 10
1.21460898717244
 20
13.6861166159312
 11
12.0177158467914
 21
13.6861166159312
  0
LINE
  8
1
 10
11.2146089871724
 20
5.68611661593119
 11
14.2177158467914
 21
5.68611661593119
  0
LINE
  8
1
 10
11.2177158467914
 20
9.68611661593119
 11
12.2177158467914
 21
9.68611661593119
  0
LINE
  8
1
 10
12.2177158467914
 20
9.68611661593119
 11
12.2177158467914
 21
13.4861166159312
  0
CIRCLE
  8
1
 10
14.2177158467914
 20
13.6861166159312
 40
0.2
  0
CIRCLE
  8
1
 10
12.2177158467914
 20
13.6861166159312
 40
0.2
  0
LINE
  8
1
 10
12.4177472864547
 20
13.6861166159312
 11
14.0177158467914
 21
13.6861166159312
  0
LINE
  8
1
 10
14.2177158467914
 20
5.68611661593119
 11
14.2177158467914
 21
13.4861166159312
  0
LINE
  8
1
 10
11.2146089871724
 20
1.68611661593119
 11
16.2146089871724
 21
1.68611661593119
  0
LINE
  8
1
 10
16.2177158467914
 20
-14.1138833840688
 11
16.2146089871724
 21
1.68611661593119
  0
TEXT
  8
1
 40
1.8
 41
0.75
  1
R
  7
STANDARD
 72
1
 10
8.71460898717244
 20
2.58611661593119
 11
8.71460898717244
 21
2.58611661593119
  0
POLYLINE
  8
1
 66
1
  0
VERTEX
  8
1
 10
7.21460898717244
 20
2.18611661593119
  0
VERTEX
  8
1
 10
11.2146089871724
 20
2.18611661593119
  0
VERTEX
  8
1
 10
11.2146089871724
 20
1.18611661593119
  0
VERTEX
  8
1
 10
7.21460898717244
 20
1.18611661593119
  0
VERTEX
  8
1
 10
7.21460898717244
 20
2.18611661593119
  0
SEQEND
  8
1
  0
LINE
  8
1
 10
1.21460898717244
 20
1.68611661593119
 11
7.21460898717244
 21
1.68611661593119
  0
LINE
  8
1
 10
14.4177158467915
 20
-14.3138833840688
 11
16.0177158467914
 21
-14.3138833840688
  0
CIRCLE
  8
1
 10
16.2177158467914
 20
-14.3138833840688
 40
0.2
  0
LINE
  8
1
 10
1.21460898717244
 20
-14.3138833840688
 11
12.0177158467914
 21
-14.3138833840688
  0
LINE
  8
1
 10
11.2146089871724
 20
-6.31388338406881
 11
14.2177158467914
 21
-6.31388338406881
  0
LINE
  8
1
 10
1.21460898717244
 20
-10.3138833840688
 11
7.22190247704047
 21
-10.3138833840688
  0
LINE
  8
1
 10
11.2177158467914
 20
-10.3138833840688
 11
12.2177158467914
 21
-10.3138833840688
  0
TEXT
  8
1
 40
1.8
 41
0.75
  1
R
  7
STANDARD
 72
1
 10
8.71771584679144
 20
-9.41388338406881
 11
8.71771584679144
 21
-9.41388338406881
  0
POLYLINE
  8
1
 66
1
  0
VERTEX
  8
1
 10
7.21771584679144
 20
-9.81388338406881
  0
VERTEX
  8
1
 10
11.2177158467914
 20
-9.81388338406881
  0
VERTEX
  8
1
 10
11.2177158467914
 20
-10.8138833840688
  0
VERTEX
  8
1
 10
7.21771584679144
 20
-10.8138833840688
  0
VERTEX
  8
1
 10
7.21771584679144
 20
-9.81388338406881
  0
SEQEND
  8
1
  0
LINE
  8
1
 10
14.2177158467914
 20
-6.31388338406881
 11
14.2177158467914
 21
-14.1138833840688
  0
LINE
  8
1
 10
12.2177158467914
 20
-10.3138833840688
 11
12.2177158467914
 21
-14.1138833840688
  0
CIRCLE
  8
1
 10
14.2177158467914
 20
-14.3138833840688
 40
0.2
  0
CIRCLE
  8
1
 10
12.2177158467914
 20
-14.3138833840688
 40
0.2
  0
LINE
  8
1
 10
12.4177472864547
 20
-14.3138833840688
 11
14.0177158467914
 21
-14.3138833840688
  0
LINE
  8
1
 10
1.21460898717244
 20
-6.31388338406881
 11
7.21460898717244
 21
-6.31388338406881
  0
TEXT
  8
1
 40
1.8
 41
0.75
  1
R
  7
STANDARD
 72
1
 10
8.71460898717244
 20
-5.41388338406881
 11
8.71460898717244
 21
-5.41388338406881
  0
POLYLINE
  8
1
 66
1
  0
VERTEX
  8
1
 10
7.21460898717244
 20
-5.81388338406881
  0
VERTEX
  8
1
 10
11.2146089871724
 20
-5.81388338406881
  0
VERTEX
  8
1
 10
11.2146089871724
 20
-6.81388338406881
  0
VERTEX
  8
1
 10
7.21460898717244
 20
-6.81388338406881
  0
VERTEX
  8
1
 10
7.21460898717244
 20
-5.81388338406881
  0
SEQEND
  8
1
  0
TEXT
  8
1
 40
2.475
 41
0.75
  1
ET
  7
STANDARD
 73
2
 10
15.0640651384989
 20
10.6861166159312
 11
15.0640651384989
 21
10.6861166159312
  0
ARC
  8
1
 10
18.2146089871724
 20
7.68611661593119
 40
1
 50
0
 51
180
  0
LINE
  8
1
 10
17.2146089871724
 20
7.68611661593119
 11
17.2146089871724
 21
6.68611661593119
  0
LINE
  8
1
 10
19.2146089871724
 20
7.68611661593119
 11
19.2146089871724
 21
6.68611661593119
  0
POLYLINE
  8
1
 70
1
 66
1
 40
0.5
 41
0.5
  0
VERTEX
  8
1
 10
17.9646089871724
 20
5.18611661593119
 42
1
  0
VERTEX
  8
1
 10
18.4646089871724
 20
5.18611661593119
 42
1
  0
SEQEND
  8
1
  0
POLYLINE
  8
1
 66
1
  0
VERTEX
  8
1
 10
16.2146089871724
 20
6.68611661593119
  0
VERTEX
  8
1
 10
20.2146089871724
 20
6.68611661593119
  0
VERTEX
  8
1
 10
20.2146089871724
 20
3.68611661593119
  0
VERTEX
  8
1
 10
16.2146089871724
 20
3.68611661593119
  0
VERTEX
  8
1
 10
16.2146089871724
 20
6.68611661593119
  0
SEQEND
  8
1
  0
ENDBLK
  8
0
  0
ENDSEC
  0
SECTION
  2
ENTITIES
  0
INSERT
  8
1
  2
B3164_00991617
 10
24.7853910128276
 20
16.6861160596212
  0
ENDSEC
  0
EOF
