  0
SECTION
  2
HEADER
  9
$LIMMIN
 10
0
 20
0
  9
$LIMMAX
 10
52.5
 20
74.25
  9
$EXTMIN
 10
0
 20
39.4971690972646
  9
$EXTMAX
 10
0
 20
19.9999995231628
  0
ENDSEC
  0
SECTION
  2
TABLES
  0
TABLE
  2
LTYPE
 70
9
  0
LTYPE
  2
CONTINUOUS
 70
64
  3
Solid line
 72
65
 73
0
 40
0
  0
LTYPE
  2
DASHED
 70
64
  3
__ __ __ __ __ __ __ __ __
 72
65
 73
2
 40
0.75
 49
0.5
 49
-0.25
  0
LTYPE
  2
DOT
 70
64
  3
...........................
 72
65
 73
2
 40
0.25
 49
0
 49
-0.25
  0
LTYPE
  2
DASHDOT
 70
64
  3
__ . __ . __ . __ . __ . __ . 
 72
65
 73
4
 40
1
 49
0.5
 49
-0.25
 49
0
 49
-0.25
  0
ENDTAB
  0
TABLE
  2
LAYER
 70
10
  0
LAYER
  2
1
 70
0
 62
7
  6
CONTINUOUS
  0
LAYER
  2
CONNECTIONS
 70
0
 62
-7
  6
CONTINUOUS
  0
ENDTAB
  0
ENDSEC
  0
SECTION
  2
BLOCKS
  0
BLOCK
  8
0
  2
TRICON
 70
0
 10
0
 20
0
  0
POLYLINE
  8
1
 70
1
 66
1
 40
0.5
 41
0.5
  0
VERTEX
  8
1
 10
-0.25
 20
0
 42
1
  0
VERTEX
  8
1
 10
0.25
 20
0
 42
1
  0
SEQEND
  8
1
  0
ENDBLK
  8
0
  0
BLOCK
  8
0
  2
TRICONSMALL
 70
0
 10
0
 20
0
  0
POLYLINE
  8
1
 70
1
 66
1
 40
0.25
 41
0.25
  0
VERTEX
  8
1
 10
-0.125
 20
0
 42
1
  0
VERTEX
  8
1
 10
0.125
 20
0
 42
1
  0
SEQEND
  8
1
  0
ENDBLK
  8
0
  0
BLOCK
  8
0
  2
TRICONCIRCLE
 70
0
 10
0
 20
0
  0
CIRCLE
  8
1
 10
0
 20
0
 40
0.5
  0
ENDBLK
  8
0
  0
BLOCK
  8
0
  2
LCBP0
 70
0
 10
0
 20
0
  0
LINE
  8
1
 10
0
 20
-0.46875
 11
0
 21
0.46875
  0
ENDBLK
  8
0
  0
BLOCK
  8
0
  2
LCBP1
 70
0
 10
0
 20
0
  0
LINE
  8
1
 10
0
 20
-0.625
 11
0
 21
0.625
  0
ENDBLK
  8
0
  0
BLOCK
  8
0
  2
LCBP2
 70
0
 10
0
 20
0
  0
LINE
  8
1
 10
0
 20
-0.9375
 11
0
 21
0.9375
  0
ENDBLK
  8
0
  0
BLOCK
  8
0
  2
LCA1
 70
0
 10
0
 20
0
  0
SOLID
  8
1
 62
7 
 10
0
 20
0
 11
-1.4
 21
-0.275
 12
-1.4
 22
0.275
 13
-1.4
 23
0.275
  0
ENDBLK
  8
0
  0
BLOCK
  8
0
  2
LCA2
 70
0
 10
0
 20
0
  0
SOLID
  8
1
 62
7 
 10
0
 20
0
 11
-1.65
 21
-0.525
 12
-1.65
 22
0.525
 13
-1.65
 23
0.525
  0
ENDBLK
  8
0
  0
BLOCK
  8
0
  2
LCA3
 70
0
 10
0
 20
0
  0
SOLID
  8
1
 62
7 
 10
0
 20
0
 11
-2.15
 21
-1.15
 12
-2.15
 22
1.15
 13
-2.15
 23
1.15
  0
ENDBLK
  8
0
  0
BLOCK
  8
0
  2
LCA1R
 70
0
 10
0
 20
0
  0
SOLID
  8
1
 62
7 
 10
0
 20
0
 11
1.4
 21
-0.275
 12
1.4
 22
0.275
 13
1.4
 23
0.275
  0
ENDBLK
  8
0
  0
BLOCK
  8
0
  2
LCA2R
 70
0
 10
0
 20
0
  0
SOLID
  8
1
 62
7 
 10
0
 20
0
 11
1.65
 21
-0.525
 12
1.65
 22
0.525
 13
1.65
 23
0.525
  0
ENDBLK
  8
0
  0
BLOCK
  8
0
  2
LCA3R
 70
0
 10
0
 20
0
  0
SOLID
  8
1
 62
7 
 10
0
 20
0
 11
2.15
 21
-1.15
 12
2.15
 22
1.15
 13
2.15
 23
1.15
  0
ENDBLK
  8
0
  0
BLOCK
  8
0
  2
B1460_00991611
 70
0
 10
0
 20
0
  0
LINE
  8
1
 10
-2.33143909772237
 20
-5
 11
-0.331439097722369
 21
-5
  0
LINE
  8
1
 10
-2.33143909772237
 20
-1
 11
-0.331439097722369
 21
-1
  0
LINE
  8
1
 10
-2.33143909772237
 20
3
 11
-0.331439097722369
 21
3
  0
LINE
  8
1
 10
-2.33143909772237
 20
7
 11
-0.331439097722369
 21
7
  0
LINE
  8
1
 10
-16.3314390977224
 20
1
 11
-9.33143909772237
 21
8
  0
POLYLINE
  8
1
 66
1
  0
VERTEX
  8
1
 10
-16.3314390977224
 20
8
  0
VERTEX
  8
1
 10
-2.33143909772237
 20
8
  0
VERTEX
  8
1
 10
-2.33143909772237
 20
-6
  0
VERTEX
  8
1
 10
-16.3314390977224
 20
-6
  0
VERTEX
  8
1
 10
-16.3314390977224
 20
8
  0
SEQEND
  8
1
  0
LINE
  8
1
 10
-0.331439097722369
 20
-5
 11
0.668560902277631
 21
-5
  0
SOLID
  8
1
 10
0.668560902277631
 20
-4.75
 11
2.16856090227763
 21
-4.75
 12
0.668560902277631
 22
-5.25
 13
2.16856090227763
 23
-5.25
  0
SOLID
  8
1
 10
2.16856090227763
 20
-5.25
 11
0.668560902277631
 21
-5.25
 12
0.668560902277631
 22
-5.25
 13
0.668560902277631
 23
-4.75
  0
LINE
  8
1
 10
-0.331439097722369
 20
-1
 11
0.668560902277631
 21
-1
  0
SOLID
  8
1
 10
0.668560902277631
 20
-0.75
 11
2.16856090227763
 21
-0.75
 12
0.668560902277631
 22
-1.25
 13
2.16856090227763
 23
-1.25
  0
SOLID
  8
1
 10
2.16856090227763
 20
-1.25
 11
0.668560902277631
 21
-1.25
 12
0.668560902277631
 22
-1.25
 13
0.668560902277631
 23
-0.75
  0
SOLID
  8
1
 10
0.668560902277631
 20
3.25
 11
2.16856090227763
 21
3.25
 12
0.668560902277631
 22
2.75
 13
2.16856090227763
 23
2.75
  0
SOLID
  8
1
 10
2.16856090227763
 20
2.75
 11
0.668560902277631
 21
2.75
 12
0.668560902277631
 22
2.75
 13
0.668560902277631
 23
3.25
  0
LINE
  8
1
 10
-0.331439097722369
 20
3
 11
0.668560902277631
 21
3
  0
LINE
  8
1
 10
-0.331439097722369
 20
7
 11
0.668560902277631
 21
7
  0
SOLID
  8
1
 10
0.668560902277631
 20
7.25
 11
2.16856090227763
 21
7.25
 12
0.668560902277631
 22
6.75
 13
2.16856090227763
 23
6.75
  0
SOLID
  8
1
 10
2.16856090227763
 20
6.75
 11
0.668560902277631
 21
6.75
 12
0.668560902277631
 22
6.75
 13
0.668560902277631
 23
7.25
  0
LINE
  8
1
 10
-16.3314390977224
 20
5.5
 11
-15.3314390977224
 21
5
  0
LINE
  8
1
 10
-15.3314390977224
 20
5
 11
-16.3314390977224
 21
4.5
  0
LINE
  8
1
 10
-16.3314390977224
 20
5.5
 11
-16.3314390977224
 21
4.5
  0
LINE
  8
1
 10
-19.3314390977224
 20
5
 11
-16.3314390977224
 21
5
  0
TEXT
  8
1
 40
1.8
 41
0.75
  1
P
  7
STANDARD
 72
2
 10
-16.9142933686574
 20
5.67474037806193
 11
-16.9142933686574
 21
5.67474037806193
  0
POLYLINE
  8
1
 66
1
  0
VERTEX
  8
1
 10
-6.33143909772237
 20
3
  0
VERTEX
  8
1
 10
-6.33143909772237
 20
-1
  0
VERTEX
  8
1
 10
-2.33143909772237
 20
-1
  0
SEQEND
  8
1
  0
LINE
  8
1
 10
-4.33143909772237
 20
3
 11
-2.33143909772237
 21
3
  0
LINE
  8
1
 10
-5.33143909772237
 20
7
 11
-2.33143909772237
 21
7
  0
LINE
  8
1
 10
-5.83143909772237
 20
3.5
 11
-5.33143909772237
 21
6
  0
LINE
  8
1
 10
-6.33143909772237
 20
4
 11
-5.83143909772237
 21
4
  0
LINE
  8
1
 10
-4.33143909772237
 20
4
 11
-4.83143909772237
 21
4
  0
LINE
  8
1
 10
-6.33143909772237
 20
4
 11
-6.33143909772237
 21
3
  0
LINE
  8
1
 10
-4.33143909772237
 20
4
 11
-4.33143909772237
 21
3
  0
LINE
  8
1
 10
-5.33143909772237
 20
6
 11
-5.33143909772237
 21
7
  0
LINE
  8
1
 10
2.66856090227763
 20
7
 11
3.66856090227763
 21
7
  0
ARC
  8
1
 10
1.66856090227763
 20
7
 40
1
 50
270
 51
90
  0
LINE
  8
1
 10
2.66856090227763
 20
-5
 11
3.66856090227763
 21
-5
  0
ARC
  8
1
 10
1.66856090227763
 20
-5
 40
1
 50
270
 51
90
  0
LINE
  8
1
 10
2.66856090227763
 20
-1
 11
3.66856090227763
 21
-1
  0
ARC
  8
1
 10
1.66856090227763
 20
-1
 40
1
 50
270
 51
90
  0
LINE
  8
1
 10
2.66856090227763
 20
3
 11
3.66856090227763
 21
3
  0
ARC
  8
1
 10
1.66856090227763
 20
3
 40
1
 50
270
 51
90
  0
TEXT
  8
1
 40
1.8
 41
0.75
  1
R
  7
STANDARD
 72
1
 10
9.16856090227763
 20
-0.0999999999999973
 11
9.16856090227763
 21
-0.0999999999999973
  0
TEXT
  8
1
 40
1.125
 41
0.75
  1
L
  7
STANDARD
 72
1
 10
10.8820269107819
 20
-0.094075361887614
 11
10.8820269107819
 21
-0.094075361887614
  0
TEXT
  8
1
 40
1.8
 41
0.75
  1
R
  7
STANDARD
 72
1
 10
10.1685609022776
 20
3.9
 11
10.1685609022776
 21
3.9
  0
TEXT
  8
1
 40
1.125
 41
0.75
  1
L
  7
STANDARD
 72
1
 10
11.8820269107819
 20
3.90592463811239
 11
11.8820269107819
 21
3.90592463811239
  0
LINE
  8
1
 10
12.8685923419409
 20
-5
 11
14.4685609022776
 21
-5
  0
LINE
  8
1
 10
14.8685609022776
 20
-5
 11
16.6685609022776
 21
-5
  0
LINE
  8
1
 10
3.66856090227763
 20
-5
 11
12.4685609022776
 21
-5
  0
CIRCLE
  8
1
 10
14.6685609022776
 20
-5
 40
0.2
  0
CIRCLE
  8
1
 10
12.6685609022776
 20
-5
 40
0.2
  0
LINE
  8
1
 10
3.66856090227763
 20
7
 11
16.6685609022776
 21
7
  0
LINE
  8
1
 10
12.6685609022776
 20
3
 11
14.6685609022776
 21
3
  0
LINE
  8
1
 10
3.66856090227763
 20
3
 11
6.66856090227763
 21
3
  0
LINE
  8
1
 10
8.66856090227763
 20
3
 11
6.66856090227763
 21
3
  0
POLYLINE
  8
1
 66
1
  0
VERTEX
  8
1
 10
8.66856090227763
 20
3.5
  0
VERTEX
  8
1
 10
12.6685609022776
 20
3.5
  0
VERTEX
  8
1
 10
12.6685609022776
 20
2.5
  0
VERTEX
  8
1
 10
8.66856090227763
 20
2.5
  0
VERTEX
  8
1
 10
8.66856090227763
 20
3.5
  0
SEQEND
  8
1
  0
LINE
  8
1
 10
14.6685609022776
 20
-4.8
 11
14.6685609022776
 21
3
  0
LINE
  8
1
 10
12.6685609022776
 20
-4.8
 11
12.6685609022776
 21
-1
  0
LINE
  8
1
 10
3.66856090227763
 20
-1
 11
5.66856090227763
 21
-1
  0
LINE
  8
1
 10
11.6685609022776
 20
-1
 11
12.6685609022776
 21
-1
  0
LINE
  8
1
 10
7.66856090227763
 20
-1
 11
5.66856090227763
 21
-1
  0
POLYLINE
  8
1
 66
1
  0
VERTEX
  8
1
 10
7.66856090227763
 20
-0.5
  0
VERTEX
  8
1
 10
11.6685609022776
 20
-0.5
  0
VERTEX
  8
1
 10
11.6685609022776
 20
-1.5
  0
VERTEX
  8
1
 10
7.66856090227763
 20
-1.5
  0
VERTEX
  8
1
 10
7.66856090227763
 20
-0.5
  0
SEQEND
  8
1
  0
LINE
  8
1
  6
DOT
 10
-7.33143909772237
 20
5
 11
-5.53143416927801
 21
5
  0
LINE
  8
1
  6
DOT
 10
-7.33143909772237
 20
-3
 11
-5.53143538130023
 21
-3
  0
LINE
  8
1
 10
-8.83143909772237
 20
4.9
 11
-8.33143909772237
 21
4.5
  0
LINE
  8
1
 10
-8.83143909772237
 20
5.1
 11
-8.33143909772237
 21
5.5
  0
SOLID
  8
1
 10
-6.83143909772237
 20
7
 11
-7.44089056993637
 21
6.49644374394098
 12
-6.83143909772237
 22
7
 13
-7.01686652185817
 23
6.23148411182437
  0
LINE
  8
1
 10
-9.33143909772237
 20
3
 11
-6.83143909772237
 21
7
  0
LINE
  8
1
 10
-8.83143909772237
 20
4
 11
-8.83143909772237
 21
3
  0
LINE
  8
1
 10
-8.83143909772237
 20
6
 11
-8.83143909772237
 21
7
  0
POLYLINE
  8
1
 66
1
  0
VERTEX
  8
1
 10
-10.3314390977224
 20
6
  0
VERTEX
  8
1
 10
-7.33143909772237
 20
6
  0
VERTEX
  8
1
 10
-7.33143909772237
 20
4
  0
VERTEX
  8
1
 10
-10.3314390977224
 20
4
  0
VERTEX
  8
1
 10
-10.3314390977224
 20
6
  0
SEQEND
  8
1
  0
LINE
  8
1
 10
-8.83143909772237
 20
5.4
 11
-8.83143909772237
 21
4.6
  0
LINE
  8
1
 10
-9.83143909772237
 20
5
 11
-8.83143909772237
 21
5
  0
TEXT
  8
1
 40
1.8
 41
0.75
  1
-
  7
STANDARD
 10
17.0716281731923
 20
-6.09999999999999
  0
TEXT
  8
1
 40
1.8
 41
0.75
  1
+
  7
STANDARD
 10
17.151652097702
 20
6.17473974227905
  0
TEXT
  8
1
 40
1.8
 41
0.75
  1
BU
  7
STANDARD
 10
2.66856090227763
 20
-4.55052051544189
  0
TEXT
  8
1
 40
1.8
 41
0.75
  1
WH
  7
STANDARD
 10
2.66856090227763
 20
-0.550520515441894
  0
TEXT
  8
1
 40
1.8
 41
0.75
  1
BK
  7
STANDARD
 10
2.66856090227763
 20
3.44947948455811
  0
TEXT
  8
1
 40
1.8
 41
0.75
  1
BN
  7
STANDARD
 10
2.66856090227763
 20
7.44947948455811
  0
TEXT
  8
1
 40
1.8
 41
0.75
  1
3
  7
STANDARD
 10
-2.33143909772237
 20
-4.55052051544189
  0
TEXT
  8
1
 40
1.8
 41
0.75
  1
2
  7
STANDARD
 10
-2.33143909772237
 20
-0.550520515441894
  0
TEXT
  8
1
 40
1.8
 41
0.75
  1
4
  7
STANDARD
 10
-2.33143909772237
 20
3.44947948455811
  0
TEXT
  8
1
 40
1.8
 41
0.75
  1
1
  7
STANDARD
 10
-2.33143909772237
 20
7.44947948455811
  0
TEXT
  8
1
 40
1.8
 41
0.75
  1
PNP
  7
STANDARD
 72
1
 73
3
 10
-9.33143909772237
 20
-6.99947948455811
 11
-9.33143909772237
 21
-6.99947948455811
  0
ENDBLK
  8
0
  0
ENDSEC
  0
SECTION
  2
ENTITIES
  0
INSERT
  8
1
  2
B1460_00991611
 10
19.7485845088959
 20
9.99999976158142
  0
ENDSEC
  0
EOF
