  0
SECTION
  2
HEADER
  9
$LIMMIN
 10
0
 20
0
  9
$LIMMAX
 10
52.5
 20
74.25
  9
$EXTMIN
 10
0
 20
84
  9
$EXTMAX
 10
0
 20
42
  0
ENDSEC
  0
SECTION
  2
TABLES
  0
TABLE
  2
LTYPE
 70
9
  0
LTYPE
  2
CONTINUOUS
 70
64
  3
Solid line
 72
65
 73
0
 40
0
  0
LTYPE
  2
DASHED
 70
64
  3
__ __ __ __ __ __ __ __ __
 72
65
 73
2
 40
0.75
 49
0.5
 49
-0.25
  0
LTYPE
  2
DOT
 70
64
  3
...........................
 72
65
 73
2
 40
0.25
 49
0
 49
-0.25
  0
LTYPE
  2
DASHDOT
 70
64
  3
__ . __ . __ . __ . __ . __ . 
 72
65
 73
4
 40
1
 49
0.5
 49
-0.25
 49
0
 49
-0.25
  0
ENDTAB
  0
TABLE
  2
LAYER
 70
10
  0
LAYER
  2
1
 70
0
 62
7
  6
CONTINUOUS
  0
LAYER
  2
CONNECTIONS
 70
0
 62
-7
  6
CONTINUOUS
  0
ENDTAB
  0
ENDSEC
  0
SECTION
  2
BLOCKS
  0
BLOCK
  8
0
  2
TRICON
 70
0
 10
0
 20
0
  0
POLYLINE
  8
1
 70
1
 66
1
 40
0.5
 41
0.5
  0
VERTEX
  8
1
 10
-0.25
 20
0
 42
1
  0
VERTEX
  8
1
 10
0.25
 20
0
 42
1
  0
SEQEND
  8
1
  0
ENDBLK
  8
0
  0
BLOCK
  8
0
  2
TRICONSMALL
 70
0
 10
0
 20
0
  0
POLYLINE
  8
1
 70
1
 66
1
 40
0.25
 41
0.25
  0
VERTEX
  8
1
 10
-0.125
 20
0
 42
1
  0
VERTEX
  8
1
 10
0.125
 20
0
 42
1
  0
SEQEND
  8
1
  0
ENDBLK
  8
0
  0
BLOCK
  8
0
  2
TRICONCIRCLE
 70
0
 10
0
 20
0
  0
CIRCLE
  8
1
 10
0
 20
0
 40
0.5
  0
ENDBLK
  8
0
  0
BLOCK
  8
0
  2
LCBP0
 70
0
 10
0
 20
0
  0
LINE
  8
1
 10
0
 20
-0.46875
 11
0
 21
0.46875
  0
ENDBLK
  8
0
  0
BLOCK
  8
0
  2
LCBP1
 70
0
 10
0
 20
0
  0
LINE
  8
1
 10
0
 20
-0.625
 11
0
 21
0.625
  0
ENDBLK
  8
0
  0
BLOCK
  8
0
  2
LCBP2
 70
0
 10
0
 20
0
  0
LINE
  8
1
 10
0
 20
-0.9375
 11
0
 21
0.9375
  0
ENDBLK
  8
0
  0
BLOCK
  8
0
  2
LCA1
 70
0
 10
0
 20
0
  0
SOLID
  8
1
 62
7 
 10
0
 20
0
 11
-1.4
 21
-0.275
 12
-1.4
 22
0.275
 13
-1.4
 23
0.275
  0
ENDBLK
  8
0
  0
BLOCK
  8
0
  2
LCA2
 70
0
 10
0
 20
0
  0
SOLID
  8
1
 62
7 
 10
0
 20
0
 11
-1.65
 21
-0.525
 12
-1.65
 22
0.525
 13
-1.65
 23
0.525
  0
ENDBLK
  8
0
  0
BLOCK
  8
0
  2
LCA3
 70
0
 10
0
 20
0
  0
SOLID
  8
1
 62
7 
 10
0
 20
0
 11
-2.15
 21
-1.15
 12
-2.15
 22
1.15
 13
-2.15
 23
1.15
  0
ENDBLK
  8
0
  0
BLOCK
  8
0
  2
LCA1R
 70
0
 10
0
 20
0
  0
SOLID
  8
1
 62
7 
 10
0
 20
0
 11
1.4
 21
-0.275
 12
1.4
 22
0.275
 13
1.4
 23
0.275
  0
ENDBLK
  8
0
  0
BLOCK
  8
0
  2
LCA2R
 70
0
 10
0
 20
0
  0
SOLID
  8
1
 62
7 
 10
0
 20
0
 11
1.65
 21
-0.525
 12
1.65
 22
0.525
 13
1.65
 23
0.525
  0
ENDBLK
  8
0
  0
BLOCK
  8
0
  2
LCA3R
 70
0
 10
0
 20
0
  0
SOLID
  8
1
 62
7 
 10
0
 20
0
 11
2.15
 21
-1.15
 12
2.15
 22
1.15
 13
2.15
 23
1.15
  0
ENDBLK
  8
0
  0
BLOCK
  8
0
  2
B5312_00991598
 70
0
 10
0
 20
0
  0
POLYLINE
  8
1
  6
DASHDOT
 66
1
  0
VERTEX
  8
1
 10
-38
 20
21
  0
VERTEX
  8
1
 10
38
 20
21
  0
VERTEX
  8
1
 10
38
 20
-17
  0
VERTEX
  8
1
 10
-38
 20
-17
  0
VERTEX
  8
1
 10
-38
 20
21
  0
SEQEND
  8
1
  0
LINE
  8
1
 10
42
 20
-1
 11
38
 21
-1
  0
LINE
  8
1
 10
14
 20
-17
 11
14
 21
-19
  0
LINE
  8
1
 10
-16
 20
-17
 11
-16
 21
-21
  0
TEXT
  8
1
 40
2.475
 41
0.75
  1
3
  7
STANDARD
 73
2
 10
-41.9345238095238
 20
-8.61904761904762
 11
-41.9345238095238
 21
-8.61904761904762
  0
TEXT
  8
1
 40
2.475
 41
0.75
  1
1
  7
STANDARD
 72
2
 10
-38.4655974188913
 20
0.88445042088071
 11
-38.4655974188913
 21
0.88445042088071
  0
LINE
  8
1
 10
-38
 20
-5
 11
-42
 21
-5
  0
LINE
  8
1
 10
-42
 20
-1
 11
-38
 21
-1
  0
TEXT
  8
1
 40
2.475
 41
0.75
  1
2
  7
STANDARD
 73
2
 10
39.1584699453552
 20
2.01639344262298
 11
39.1584699453552
 21
2.01639344262298
  0
LINE
  8
1
 10
38
 20
-1
 11
33.7564710180456
 21
-1
  0
LINE
  8
1
 10
2
 20
-1
 11
22.4427626087452
 21
-1
  0
LINE
  8
1
 10
14
 20
7
 11
14
 21
-17
  0
POLYLINE
  8
1
 66
1
  0
VERTEX
  8
1
 10
-8
 20
-1
  0
VERTEX
  8
1
 10
-8
 20
-11
  0
VERTEX
  8
1
 10
-6
 20
-11
  0
SEQEND
  8
1
  0
LINE
  8
1
 10
-10.3431457505076
 20
-1
 11
-6
 21
-1
  0
LINE
  8
1
 10
-16
 20
-6.67904630903257
 11
-16
 21
-17
  0
LINE
  8
1
 10
-26
 20
-1
 11
-21.6568542494924
 21
-1
  0
LINE
  8
1
 10
-34
 20
-5
 11
-38
 21
-5
  0
LINE
  8
1
 10
-38
 20
-1
 11
-34
 21
-1
  0
POLYLINE
  8
1
 70
1
 66
1
 40
0.5
 41
0.5
  0
VERTEX
  8
1
 10
-8.25
 20
-1
 42
1
  0
VERTEX
  8
1
 10
-7.75
 20
-1
 42
1
  0
SEQEND
  8
1
  0
POLYLINE
  8
1
 70
1
 66
1
 40
0.5
 41
0.5
  0
VERTEX
  8
1
 10
5.75
 20
-1
 42
1
  0
VERTEX
  8
1
 10
6.25
 20
-1
 42
1
  0
SEQEND
  8
1
  0
POLYLINE
  8
1
 66
1
  0
VERTEX
  8
1
 10
4
 20
-11
  0
VERTEX
  8
1
 10
6
 20
-11
  0
VERTEX
  8
1
 10
6
 20
-1
  0
SEQEND
  8
1
  0
LINE
  8
1
 10
6
 20
5
 11
6
 21
-1
  0
LINE
  8
1
 10
14
 20
-19
 11
14
 21
-21
  0
INSERT
  8
1
  2
LCBP1
 10
14
 20
-21
 50
-90
  0
LINE
  8
1
 10
28.0996168582375
 20
1.34227330779054
 11
28.0996168582375
 21
4.65598180677528
  0
POLYLINE
  8
1
 66
1
  0
VERTEX
  8
1
 10
28.0996168582378
 20
4.65598180677527
  0
VERTEX
  8
1
 10
22.4427626087452
 20
-1.0008724427171
  0
VERTEX
  8
1
 10
28.0996168582378
 20
-6.6577266922095
  0
VERTEX
  8
1
 10
33.75647110773
 20
-1.0008724427171
  0
VERTEX
  8
1
 10
28.0996168582378
 20
4.65598180677527
  0
SEQEND
  8
1
  0
LINE
  8
1
 10
7.76776695296636
 20
7.23223304703364
 11
4.23223304703363
 21
10.7677669529664
  0
INSERT
  8
1
  2
LCA1
 10
4.23223304703363
 20
10.7677669529664
 50
135
  0
CIRCLE
  8
1
 10
6
 20
9
 40
4
  0
LINE
  8
1
 10
18.5081743869211
 20
14.5
 11
9.50817438692106
 21
16.5
  0
INSERT
  8
1
  2
LCA1
 10
9.50817438692106
 20
16.5
 50
167.471192290848
  0
POLYLINE
  8
1
 66
1
  0
VERTEX
  8
1
 10
14.008174386921
 20
18
  0
VERTEX
  8
1
 10
16.008174386921
 20
17.5833333333333
  0
VERTEX
  8
1
 10
12.008174386921
 20
16.75
  0
VERTEX
  8
1
 10
16.008174386921
 20
15.9166666666667
  0
VERTEX
  8
1
 10
12.008174386921
 20
15.0833333333333
  0
VERTEX
  8
1
 10
16.008174386921
 20
14.25
  0
VERTEX
  8
1
 10
12.008174386921
 20
13.4166666666667
  0
VERTEX
  8
1
 10
14.008174386921
 20
13
  0
SEQEND
  8
1
  0
POLYLINE
  8
1
 66
1
  0
VERTEX
  8
1
 10
14.308174386921
 20
8.15
  0
VERTEX
  8
1
 10
14.308174386921
 20
9.15
  0
VERTEX
  8
1
 10
13.308174386921
 20
11.65
  0
SEQEND
  8
1
  0
LINE
  8
1
 10
14.3081743869211
 20
10.85
 11
14.3081743869211
 21
11.85
  0
POLYLINE
  8
1
 66
1
  0
VERTEX
  8
1
 10
11.008174386921
 20
7
  0
VERTEX
  8
1
 10
17.008174386921
 20
7
  0
VERTEX
  8
1
 10
17.008174386921
 20
13
  0
VERTEX
  8
1
 10
11.008174386921
 20
13
  0
VERTEX
  8
1
 10
11.008174386921
 20
7
  0
SEQEND
  8
1
  0
LINE
  8
1
 10
-6
 20
-11
 11
-2.47599729546991
 21
-11.0027045300879
  0
LINE
  8
1
 10
0
 20
-11
 11
4
 21
-11
  0
CIRCLE
  8
1
 10
-1.5
 20
-11
 40
1
  0
POLYLINE
  8
1
 66
1
  0
VERTEX
  8
1
 10
-2
 20
-13
  0
VERTEX
  8
1
 10
0
 20
-11
  0
VERTEX
  8
1
 10
-2
 20
-9
  0
SEQEND
  8
1
  0
POLYLINE
  8
1
 66
1
  0
VERTEX
  8
1
 10
-26
 20
9
  0
VERTEX
  8
1
 10
-34
 20
9
  0
VERTEX
  8
1
 10
-34
 20
1
  0
VERTEX
  8
1
 10
-26
 20
1
  0
VERTEX
  8
1
 10
-26
 20
9
  0
SEQEND
  8
1
  0
LINE
  8
1
 10
-34
 20
3
 11
-32
 21
3
  0
INSERT
  8
1
  2
LCBP1
 10
-32
 20
3
 50
0
  0
LINE
  8
1
 10
-34
 20
7
 11
-26
 21
7
  0
INSERT
  8
1
  2
LCA1
 10
-26
 20
7
 50
0
  0
LINE
  8
1
 10
-34
 20
-1
 11
-32
 21
-1
  0
INSERT
  8
1
  2
LCBP1
 10
-32
 20
-1
 50
0
  0
POLYLINE
  8
1
 66
1
  0
VERTEX
  8
1
 10
-26
 20
1
  0
VERTEX
  8
1
 10
-34
 20
1
  0
VERTEX
  8
1
 10
-34
 20
-7
  0
VERTEX
  8
1
 10
-26
 20
-7
  0
VERTEX
  8
1
 10
-26
 20
1
  0
SEQEND
  8
1
  0
LINE
  8
1
 10
-26
 20
-1
 11
-34
 21
-5
  0
INSERT
  8
1
  2
LCA1
 10
-34
 20
-5
 50
-153.434948822922
  0
LINE
  8
1
 10
-30
 20
12
 11
-28
 21
12
  0
LINE
  8
1
 10
-33.5
 20
15
 11
-30.5
 21
15
  0
LINE
  8
1
 10
-31
 20
13.25
 11
-31
 21
15
  0
POLYLINE
  8
1
 66
1
  0
VERTEX
  8
1
 10
-31
 20
13.25
  0
VERTEX
  8
1
 10
-31
 20
12.75
  0
VERTEX
  8
1
 10
-32.2990381056767
 20
12
  0
VERTEX
  8
1
 10
-31
 20
11.25
  0
VERTEX
  8
1
 10
-31
 20
10.75
  0
SEQEND
  8
1
  0
LINE
  8
1
 10
-31
 20
9
 11
-31
 21
10.75
  0
LINE
  8
1
 10
-33
 20
9
 11
-33
 21
15
  0
POLYLINE
  8
1
 70
1
 66
1
 40
0.5
 41
0.5
  0
VERTEX
  8
1
 10
13.75
 20
-1
 42
1
  0
VERTEX
  8
1
 10
14.25
 20
-1
 42
1
  0
SEQEND
  8
1
  0
POLYLINE
  8
1
 66
1
  0
VERTEX
  8
1
 10
10
 20
2
  0
VERTEX
  8
1
 10
18
 20
2
  0
VERTEX
  8
1
 10
18
 20
-4
  0
VERTEX
  8
1
 10
10
 20
-4
  0
VERTEX
  8
1
 10
10
 20
2
  0
SEQEND
  8
1
  0
LINE
  8
1
  6
DASHED
 10
-15.999999566159
 20
-3.13297872340426
 11
-15.999999566159
 21
4.63466218995219
  0
LINE
  8
1
 10
-19.5460952914641
 20
-3.13297872340426
 11
-12.4539038408538
 21
-3.13297872340426
  0
LINE
  8
1
 10
-17.3786898982066
 20
-3.17903606726635
 11
-16
 21
-4.55772596547291
  0
LINE
  8
1
 10
-16
 20
-4.55772596547291
 11
-14.62135162219
 21
-3.17907758766292
  0
POLYLINE
  8
1
 66
1
  0
VERTEX
  8
1
 10
-16
 20
4.63466218995217
  0
VERTEX
  8
1
 10
-21.6568542494924
 20
-1.0221920595402
  0
VERTEX
  8
1
 10
-16
 20
-6.6790463090325
  0
VERTEX
  8
1
 10
-10.3431457505075
 20
-1.0221920595402
  0
VERTEX
  8
1
 10
-16
 20
4.63466218995217
  0
SEQEND
  8
1
  0
LINE
  8
1
 10
-8.44259788264229
 20
6.27036371433004
 11
0.442873578659832
 21
8.72971259368521
  0
INSERT
  8
1
  2
LCA1
 10
0.442873578659832
 20
8.72971259368521
 50
15.4711922908485
  0
POLYLINE
  8
1
 66
1
  0
VERTEX
  8
1
 10
-3.99988891190038
 20
5.0000231433541
  0
VERTEX
  8
1
 10
-1.99988891190037
 20
5.4166898100208
  0
VERTEX
  8
1
 10
-5.99988891190038
 20
6.2500231433541
  0
VERTEX
  8
1
 10
-1.99988891190037
 20
7.08335647668745
  0
VERTEX
  8
1
 10
-5.99988891190038
 20
7.9166898100208
  0
VERTEX
  8
1
 10
-1.99988891190037
 20
8.7500231433541
  0
VERTEX
  8
1
 10
-5.99988891190038
 20
9.5833564766874
  0
VERTEX
  8
1
 10
-3.99988891190038
 20
10.0000231433541
  0
SEQEND
  8
1
  0
POLYLINE
  8
1
 66
1
  0
VERTEX
  8
1
 10
-6
 20
4
  0
VERTEX
  8
1
 10
-8
 20
3
  0
VERTEX
  8
1
 10
-6
 20
2
  0
SEQEND
  8
1
  0
POLYLINE
  8
1
  6
DOT
 66
1
  0
VERTEX
  8
1
 10
-4
 20
-3
  0
VERTEX
  8
1
 10
-4
 20
-7
  0
VERTEX
  8
1
 10
4
 20
-7
  0
VERTEX
  8
1
 10
4
 20
-3
  0
VERTEX
  8
1
 10
2
 20
-1
  0
SEQEND
  8
1
  0
POLYLINE
  8
1
 66
1
  0
VERTEX
  8
1
 10
-6
 20
-3
  0
VERTEX
  8
1
 10
2
 20
-3
  0
VERTEX
  8
1
 10
2
 20
5
  0
VERTEX
  8
1
 10
-6
 20
5
  0
VERTEX
  8
1
 10
-6
 20
-3
  0
SEQEND
  8
1
  0
LINE
  8
1
 10
2
 20
-1
 11
-6
 21
-1
  0
INSERT
  8
1
  2
LCA1
 10
-6
 20
-1
 50
-180
  0
INSERT
  8
1
  2
LCA1R
 10
2
 20
-1
 50
-180
  0
CIRCLE
  8
CONNECTIONS
 10
42
 20
-1
 40
0
  0
CIRCLE
  8
CONNECTIONS
 10
-42
 20
-1
 40
0
  0
CIRCLE
  8
CONNECTIONS
 10
-42
 20
-5
 40
0
  0
CIRCLE
  8
CONNECTIONS
 10
14
 20
-19
 40
0
  0
CIRCLE
  8
CONNECTIONS
 10
14.008174386921
 20
13
 40
0
  0
ENDBLK
  8
0
  0
ENDSEC
  0
SECTION
  2
ENTITIES
  0
INSERT
  8
1
  2
B5312_00991598
 10
42
 20
21
  0
ENDSEC
  0
EOF
