  0
SECTION
  2
HEADER
  9
$LIMMIN
 10
0
 20
0
  9
$LIMMAX
 10
52.5
 20
74.25
  9
$EXTMIN
 10
0
 20
84
  9
$EXTMAX
 10
0
 20
42
  0
ENDSEC
  0
SECTION
  2
TABLES
  0
TABLE
  2
LTYPE
 70
9
  0
LTYPE
  2
CONTINUOUS
 70
64
  3
Solid line
 72
65
 73
0
 40
0
  0
LTYPE
  2
DASHED
 70
64
  3
__ __ __ __ __ __ __ __ __
 72
65
 73
2
 40
0.75
 49
0.5
 49
-0.25
  0
LTYPE
  2
DOT
 70
64
  3
...........................
 72
65
 73
2
 40
0.25
 49
0
 49
-0.25
  0
LTYPE
  2
DASHDOT
 70
64
  3
__ . __ . __ . __ . __ . __ . 
 72
65
 73
4
 40
1
 49
0.5
 49
-0.25
 49
0
 49
-0.25
  0
ENDTAB
  0
TABLE
  2
LAYER
 70
10
  0
LAYER
  2
1
 70
0
 62
7
  6
CONTINUOUS
  0
LAYER
  2
CONNECTIONS
 70
0
 62
-7
  6
CONTINUOUS
  0
ENDTAB
  0
ENDSEC
  0
SECTION
  2
BLOCKS
  0
BLOCK
  8
0
  2
TRICON
 70
0
 10
0
 20
0
  0
POLYLINE
  8
1
 70
1
 66
1
 40
0.5
 41
0.5
  0
VERTEX
  8
1
 10
-0.25
 20
0
 42
1
  0
VERTEX
  8
1
 10
0.25
 20
0
 42
1
  0
SEQEND
  8
1
  0
ENDBLK
  8
0
  0
BLOCK
  8
0
  2
TRICONSMALL
 70
0
 10
0
 20
0
  0
POLYLINE
  8
1
 70
1
 66
1
 40
0.25
 41
0.25
  0
VERTEX
  8
1
 10
-0.125
 20
0
 42
1
  0
VERTEX
  8
1
 10
0.125
 20
0
 42
1
  0
SEQEND
  8
1
  0
ENDBLK
  8
0
  0
BLOCK
  8
0
  2
TRICONCIRCLE
 70
0
 10
0
 20
0
  0
CIRCLE
  8
1
 10
0
 20
0
 40
0.5
  0
ENDBLK
  8
0
  0
BLOCK
  8
0
  2
LCBP0
 70
0
 10
0
 20
0
  0
LINE
  8
1
 10
0
 20
-0.46875
 11
0
 21
0.46875
  0
ENDBLK
  8
0
  0
BLOCK
  8
0
  2
LCBP1
 70
0
 10
0
 20
0
  0
LINE
  8
1
 10
0
 20
-0.625
 11
0
 21
0.625
  0
ENDBLK
  8
0
  0
BLOCK
  8
0
  2
LCBP2
 70
0
 10
0
 20
0
  0
LINE
  8
1
 10
0
 20
-0.9375
 11
0
 21
0.9375
  0
ENDBLK
  8
0
  0
BLOCK
  8
0
  2
LCA1
 70
0
 10
0
 20
0
  0
SOLID
  8
1
 62
7 
 10
0
 20
0
 11
-1.4
 21
-0.275
 12
-1.4
 22
0.275
 13
-1.4
 23
0.275
  0
ENDBLK
  8
0
  0
BLOCK
  8
0
  2
LCA2
 70
0
 10
0
 20
0
  0
SOLID
  8
1
 62
7 
 10
0
 20
0
 11
-1.65
 21
-0.525
 12
-1.65
 22
0.525
 13
-1.65
 23
0.525
  0
ENDBLK
  8
0
  0
BLOCK
  8
0
  2
LCA3
 70
0
 10
0
 20
0
  0
SOLID
  8
1
 62
7 
 10
0
 20
0
 11
-2.15
 21
-1.15
 12
-2.15
 22
1.15
 13
-2.15
 23
1.15
  0
ENDBLK
  8
0
  0
BLOCK
  8
0
  2
LCA1R
 70
0
 10
0
 20
0
  0
SOLID
  8
1
 62
7 
 10
0
 20
0
 11
1.4
 21
-0.275
 12
1.4
 22
0.275
 13
1.4
 23
0.275
  0
ENDBLK
  8
0
  0
BLOCK
  8
0
  2
LCA2R
 70
0
 10
0
 20
0
  0
SOLID
  8
1
 62
7 
 10
0
 20
0
 11
1.65
 21
-0.525
 12
1.65
 22
0.525
 13
1.65
 23
0.525
  0
ENDBLK
  8
0
  0
BLOCK
  8
0
  2
LCA3R
 70
0
 10
0
 20
0
  0
SOLID
  8
1
 62
7 
 10
0
 20
0
 11
2.15
 21
-1.15
 12
2.15
 22
1.15
 13
2.15
 23
1.15
  0
ENDBLK
  8
0
  0
BLOCK
  8
0
  2
B4949_00991570
 70
0
 10
0
 20
0
  0
POLYLINE
  8
1
  6
DASHDOT
 66
1
  0
VERTEX
  8
1
 10
-38
 20
21
  0
VERTEX
  8
1
 10
38
 20
21
  0
VERTEX
  8
1
 10
38
 20
-17
  0
VERTEX
  8
1
 10
-38
 20
-17
  0
VERTEX
  8
1
 10
-38
 20
21
  0
SEQEND
  8
1
  0
LINE
  8
1
 10
38
 20
-3
 11
42
 21
-3
  0
LINE
  8
1
 10
-2
 20
-17
 11
-2
 21
-21
  0
LINE
  8
1
 10
-28
 20
-21
 11
-28
 21
-17
  0
LINE
  8
1
 10
-42
 20
-3
 11
-38
 21
-3
  0
TEXT
  8
1
 40
2.475
 41
0.75
  1
1
  7
STANDARD
 72
2
 10
-39.4655974188913
 20
-1.11554957911929
 11
-39.4655974188913
 21
-1.11554957911929
  0
TEXT
  8
1
 40
2.475
 41
0.75
  1
2
  7
STANDARD
 73
2
 10
39.1584699453552
 20
0.0163934426229773
 11
39.1584699453552
 21
0.0163934426229773
  0
TEXT
  8
1
 40
2.475
 41
0.75
  1
3
  7
STANDARD
 73
2
 10
-6.59203783125866
 20
-20.5602462620932
 11
-6.59203783125866
 21
-20.5602462620932
  0
LINE
  8
1
 10
38
 20
-3
 11
30
 21
-3
  0
POLYLINE
  8
1
 66
1
  0
VERTEX
  8
1
 10
2
 20
-7
  0
VERTEX
  8
1
 10
-2
 20
-7
  0
VERTEX
  8
1
 10
-2
 20
-17
  0
SEQEND
  8
1
  0
LINE
  8
1
 10
-10
 20
-3
 11
2
 21
-3
  0
LINE
  8
1
 10
-22.3351346045654
 20
-3
 11
-18
 21
-3
  0
LINE
  8
1
 10
-28
 20
-17
 11
-28
 21
-8.61361455522274
  0
LINE
  8
1
 10
-38
 20
-3
 11
-33.6485902072146
 21
-3
  0
POLYLINE
  8
1
 70
1
 66
1
 40
0.5
 41
0.5
  0
VERTEX
  8
1
 10
23.75
 20
17
 42
1
  0
VERTEX
  8
1
 10
24.25
 20
17
 42
1
  0
SEQEND
  8
1
  0
POLYLINE
  8
1
 70
1
 66
1
 40
0.5
 41
0.5
  0
VERTEX
  8
1
 10
33.75
 20
-3
 42
1
  0
VERTEX
  8
1
 10
34.25
 20
-3
 42
1
  0
SEQEND
  8
1
  0
POLYLINE
  8
1
 70
1
 66
1
 40
0.5
 41
0.5
  0
VERTEX
  8
1
 10
15.75
 20
-3
 42
1
  0
VERTEX
  8
1
 10
16.25
 20
-3
 42
1
  0
SEQEND
  8
1
  0
POLYLINE
  8
1
 66
1
  0
VERTEX
  8
1
 10
16
 20
13
  0
VERTEX
  8
1
 10
16
 20
17
  0
VERTEX
  8
1
 10
24
 20
17
  0
VERTEX
  8
1
 10
24
 20
15
  0
VERTEX
  8
1
 10
24
 20
17
  0
VERTEX
  8
1
 10
34
 20
17
  0
VERTEX
  8
1
 10
34
 20
-3
  0
SEQEND
  8
1
  0
LINE
  8
1
 10
22
 20
-3
 11
10
 21
-3
  0
POLYLINE
  8
1
 70
1
 66
1
 40
0.5
 41
0.5
  0
VERTEX
  8
1
 10
-6.25
 20
-3
 42
1
  0
VERTEX
  8
1
 10
-5.75
 20
-3
 42
1
  0
SEQEND
  8
1
  0
LINE
  8
1
 10
-6
 20
3
 11
-6
 21
-3
  0
LINE
  8
1
 10
-29.9919617273217
 20
-6.62993508330235
 11
-25.9919765948598
 21
-6.62993508330235
  0
LINE
  8
1
  6
DASHED
 10
-27.991974720555
 20
-6.62993508330235
 11
-27.991974720555
 21
2.68377341568237
  0
POLYLINE
  8
1
 66
1
  0
VERTEX
  8
1
 10
-27.9919888540578
 20
2.68377341568237
  0
VERTEX
  8
1
 10
-33.6488431035502
 20
-2.97308083381
  0
VERTEX
  8
1
 10
-27.9919888540578
 20
-8.62993508330224
  0
VERTEX
  8
1
 10
-22.3351346045654
 20
-2.97308083381
  0
VERTEX
  8
1
 10
-27.9919888540578
 20
2.68377341568237
  0
SEQEND
  8
1
  0
LINE
  8
1
 10
-4.23223304703364
 20
5.23223304703364
 11
-7.76776695296637
 21
8.76776695296637
  0
INSERT
  8
1
  2
LCA1
 10
-7.76776695296637
 20
8.76776695296637
 50
135
  0
CIRCLE
  8
1
 10
-6
 20
7
 40
4
  0
LINE
  8
1
 10
12.2928932188135
 20
6.5857864376269
 11
19.3639610306789
 21
3.75735931288072
  0
INSERT
  8
1
  2
LCA1
 10
19.3639610306789
 20
3.75735931288072
 50
-21.8014094863518
  0
LINE
  8
1
 10
16
 20
13
 11
16
 21
-3
  0
ARC
  8
1
 10
6
 20
5
 40
9
 50
340.528596800055
 51
19.4710505793386
  0
ARC
  8
1
 10
26
 20
5
 40
9
 50
160.52865870751
 51
199.47139531546
  0
LINE
  8
1
 10
22
 20
15
 11
24
 21
11.5358983848622
  0
LINE
  8
1
 10
26
 20
15
 11
24
 21
11.5358983848622
  0
LINE
  8
1
 10
22
 20
5
 11
30
 21
5
  0
INSERT
  8
1
  2
LCA1
 10
30
 20
5
 50
0
  0
POLYLINE
  8
1
 66
1
  0
VERTEX
  8
1
 10
30
 20
9
  0
VERTEX
  8
1
 10
22
 20
9
  0
VERTEX
  8
1
 10
22
 20
1
  0
VERTEX
  8
1
 10
30
 20
1
  0
VERTEX
  8
1
 10
30
 20
9
  0
SEQEND
  8
1
  0
LINE
  8
1
 10
30
 20
-3
 11
28
 21
-3
  0
INSERT
  8
1
  2
LCBP1
 10
28
 20
-3
 50
-180
  0
LINE
  8
1
 10
22
 20
-3
 11
24
 21
-3
  0
INSERT
  8
1
  2
LCBP1
 10
24
 20
-3
 50
0
  0
POLYLINE
  8
1
 66
1
  0
VERTEX
  8
1
 10
30
 20
1
  0
VERTEX
  8
1
 10
22
 20
1
  0
VERTEX
  8
1
 10
22
 20
-7
  0
VERTEX
  8
1
 10
30
 20
-7
  0
VERTEX
  8
1
 10
30
 20
1
  0
SEQEND
  8
1
  0
POLYLINE
  8
1
 66
1
  0
VERTEX
  8
1
 10
26
 20
15
  0
VERTEX
  8
1
 10
22
 20
15
  0
VERTEX
  8
1
 10
22
 20
9
  0
VERTEX
  8
1
 10
26
 20
9
  0
VERTEX
  8
1
 10
26
 20
15
  0
SEQEND
  8
1
  0
POLYLINE
  8
1
 66
1
  0
VERTEX
  8
1
 10
24
 20
-12
  0
VERTEX
  8
1
 10
22
 20
-11.5833333333333
  0
VERTEX
  8
1
 10
26
 20
-10.75
  0
VERTEX
  8
1
 10
22
 20
-9.91666666666675
  0
VERTEX
  8
1
 10
26
 20
-9.08333333333324
  0
VERTEX
  8
1
 10
22
 20
-8.25
  0
VERTEX
  8
1
 10
26
 20
-7.41666666666675
  0
VERTEX
  8
1
 10
24
 20
-7
  0
SEQEND
  8
1
  0
POLYLINE
  8
1
 66
1
  0
VERTEX
  8
1
 10
10
 20
7
  0
VERTEX
  8
1
 10
2
 20
7
  0
VERTEX
  8
1
 10
2
 20
-1
  0
VERTEX
  8
1
 10
10
 20
-1
  0
VERTEX
  8
1
 10
10
 20
7
  0
SEQEND
  8
1
  0
LINE
  8
1
 10
2
 20
1
 11
4
 21
1
  0
INSERT
  8
1
  2
LCBP1
 10
4
 20
1
 50
0
  0
LINE
  8
1
 10
2
 20
5
 11
10
 21
5
  0
INSERT
  8
1
  2
LCA1
 10
10
 20
5
 50
0
  0
LINE
  8
1
 10
2
 20
-3
 11
4
 21
-3
  0
INSERT
  8
1
  2
LCBP1
 10
4
 20
-3
 50
0
  0
POLYLINE
  8
1
 66
1
  0
VERTEX
  8
1
 10
10
 20
-1
  0
VERTEX
  8
1
 10
2
 20
-1
  0
VERTEX
  8
1
 10
2
 20
-9
  0
VERTEX
  8
1
 10
10
 20
-9
  0
VERTEX
  8
1
 10
10
 20
-1
  0
SEQEND
  8
1
  0
LINE
  8
1
 10
10
 20
-3
 11
2
 21
-7
  0
INSERT
  8
1
  2
LCA1
 10
2
 20
-7
 50
-153.434948822922
  0
LINE
  8
1
 10
2
 20
11
 11
6
 21
9
  0
POLYLINE
  8
1
 66
1
  0
VERTEX
  8
1
 10
6
 20
13
  0
VERTEX
  8
1
 10
2
 20
13
  0
VERTEX
  8
1
 10
2
 20
7
  0
VERTEX
  8
1
 10
6
 20
7
  0
VERTEX
  8
1
 10
6
 20
13
  0
SEQEND
  8
1
  0
LINE
  8
1
 10
9.5
 20
11
 11
9.5
 21
7
  0
LINE
  8
1
 10
10
 20
11
 11
7
 21
11
  0
LINE
  8
1
 10
7.5
 20
11
 11
7.5
 21
7
  0
LINE
  8
1
 10
6
 20
7
 11
10
 21
7
  0
POLYLINE
  8
1
 66
1
  0
VERTEX
  8
1
 10
4
 20
-14
  0
VERTEX
  8
1
 10
2
 20
-13.5833333333333
  0
VERTEX
  8
1
 10
6
 20
-12.75
  0
VERTEX
  8
1
 10
2
 20
-11.9166666666667
  0
VERTEX
  8
1
 10
6
 20
-11.0833333333333
  0
VERTEX
  8
1
 10
2
 20
-10.25
  0
VERTEX
  8
1
 10
6
 20
-9.41666666666675
  0
VERTEX
  8
1
 10
4
 20
-9
  0
SEQEND
  8
1
  0
LINE
  8
1
 10
-20.4425978826423
 20
4.27036371433004
 11
-11.5571264213402
 21
6.72971259368521
  0
INSERT
  8
1
  2
LCA1
 10
-11.5571264213402
 20
6.72971259368521
 50
15.4711922908485
  0
POLYLINE
  8
1
 66
1
  0
VERTEX
  8
1
 10
-15.9998889119004
 20
3.0000231433541
  0
VERTEX
  8
1
 10
-13.9998889119004
 20
3.4166898100208
  0
VERTEX
  8
1
 10
-17.9998889119004
 20
4.2500231433541
  0
VERTEX
  8
1
 10
-13.9998889119004
 20
5.08335647668745
  0
VERTEX
  8
1
 10
-17.9998889119004
 20
5.9166898100208
  0
VERTEX
  8
1
 10
-13.9998889119004
 20
6.7500231433541
  0
VERTEX
  8
1
 10
-17.9998889119004
 20
7.5833564766874
  0
VERTEX
  8
1
 10
-15.9998889119004
 20
8.0000231433541
  0
SEQEND
  8
1
  0
POLYLINE
  8
1
 66
1
  0
VERTEX
  8
1
 10
-18
 20
2
  0
VERTEX
  8
1
 10
-20
 20
1
  0
VERTEX
  8
1
 10
-18
 20
0
  0
SEQEND
  8
1
  0
POLYLINE
  8
1
  6
DOT
 66
1
  0
VERTEX
  8
1
 10
-16
 20
-5
  0
VERTEX
  8
1
 10
-16
 20
-9
  0
VERTEX
  8
1
 10
-8
 20
-9
  0
VERTEX
  8
1
 10
-8
 20
-5
  0
VERTEX
  8
1
 10
-10
 20
-3
  0
SEQEND
  8
1
  0
POLYLINE
  8
1
 66
1
  0
VERTEX
  8
1
 10
-18
 20
-5
  0
VERTEX
  8
1
 10
-10
 20
-5
  0
VERTEX
  8
1
 10
-10
 20
3
  0
VERTEX
  8
1
 10
-18
 20
3
  0
VERTEX
  8
1
 10
-18
 20
-5
  0
SEQEND
  8
1
  0
LINE
  8
1
 10
-10
 20
-3
 11
-18
 21
-3
  0
INSERT
  8
1
  2
LCA1
 10
-18
 20
-3
 50
-180
  0
INSERT
  8
1
  2
LCA1R
 10
-10
 20
-3
 50
-180
  0
CIRCLE
  8
CONNECTIONS
 10
42
 20
-3
 40
0
  0
CIRCLE
  8
CONNECTIONS
 10
-42
 20
-3
 40
0
  0
CIRCLE
  8
CONNECTIONS
 10
-2
 20
-21
 40
0
  0
CIRCLE
  8
CONNECTIONS
 10
4
 20
13
 40
0
  0
ENDBLK
  8
0
  0
ENDSEC
  0
SECTION
  2
ENTITIES
  0
INSERT
  8
1
  2
B4949_00991570
 10
42
 20
21
  0
ENDSEC
  0
EOF
