  0
SECTION
  2
HEADER
  9
$LIMMIN
 10
0
 20
0
  9
$LIMMAX
 10
52.5
 20
74.25
  9
$EXTMIN
 10
0
 20
116
  9
$EXTMAX
 10
0
 20
44
  0
ENDSEC
  0
SECTION
  2
TABLES
  0
TABLE
  2
LTYPE
 70
9
  0
LTYPE
  2
CONTINUOUS
 70
64
  3
Solid line
 72
65
 73
0
 40
0
  0
LTYPE
  2
DASHED
 70
64
  3
__ __ __ __ __ __ __ __ __
 72
65
 73
2
 40
0.75
 49
0.5
 49
-0.25
  0
LTYPE
  2
DOT
 70
64
  3
...........................
 72
65
 73
2
 40
0.25
 49
0
 49
-0.25
  0
LTYPE
  2
DASHDOT
 70
64
  3
__ . __ . __ . __ . __ . __ . 
 72
65
 73
4
 40
1
 49
0.5
 49
-0.25
 49
0
 49
-0.25
  0
ENDTAB
  0
TABLE
  2
LAYER
 70
10
  0
LAYER
  2
1
 70
0
 62
7
  6
CONTINUOUS
  0
LAYER
  2
CONNECTIONS
 70
0
 62
-7
  6
CONTINUOUS
  0
ENDTAB
  0
ENDSEC
  0
SECTION
  2
BLOCKS
  0
BLOCK
  8
0
  2
TRICON
 70
0
 10
0
 20
0
  0
POLYLINE
  8
1
 70
1
 66
1
 40
0.5
 41
0.5
  0
VERTEX
  8
1
 10
-0.25
 20
0
 42
1
  0
VERTEX
  8
1
 10
0.25
 20
0
 42
1
  0
SEQEND
  8
1
  0
ENDBLK
  8
0
  0
BLOCK
  8
0
  2
TRICONSMALL
 70
0
 10
0
 20
0
  0
POLYLINE
  8
1
 70
1
 66
1
 40
0.25
 41
0.25
  0
VERTEX
  8
1
 10
-0.125
 20
0
 42
1
  0
VERTEX
  8
1
 10
0.125
 20
0
 42
1
  0
SEQEND
  8
1
  0
ENDBLK
  8
0
  0
BLOCK
  8
0
  2
TRICONCIRCLE
 70
0
 10
0
 20
0
  0
CIRCLE
  8
1
 10
0
 20
0
 40
0.5
  0
ENDBLK
  8
0
  0
BLOCK
  8
0
  2
LCBP0
 70
0
 10
0
 20
0
  0
LINE
  8
1
 10
0
 20
-0.46875
 11
0
 21
0.46875
  0
ENDBLK
  8
0
  0
BLOCK
  8
0
  2
LCBP1
 70
0
 10
0
 20
0
  0
LINE
  8
1
 10
0
 20
-0.625
 11
0
 21
0.625
  0
ENDBLK
  8
0
  0
BLOCK
  8
0
  2
LCBP2
 70
0
 10
0
 20
0
  0
LINE
  8
1
 10
0
 20
-0.9375
 11
0
 21
0.9375
  0
ENDBLK
  8
0
  0
BLOCK
  8
0
  2
LCA1
 70
0
 10
0
 20
0
  0
SOLID
  8
1
 62
7 
 10
0
 20
0
 11
-1.4
 21
-0.275
 12
-1.4
 22
0.275
 13
-1.4
 23
0.275
  0
ENDBLK
  8
0
  0
BLOCK
  8
0
  2
LCA2
 70
0
 10
0
 20
0
  0
SOLID
  8
1
 62
7 
 10
0
 20
0
 11
-1.65
 21
-0.525
 12
-1.65
 22
0.525
 13
-1.65
 23
0.525
  0
ENDBLK
  8
0
  0
BLOCK
  8
0
  2
LCA3
 70
0
 10
0
 20
0
  0
SOLID
  8
1
 62
7 
 10
0
 20
0
 11
-2.15
 21
-1.15
 12
-2.15
 22
1.15
 13
-2.15
 23
1.15
  0
ENDBLK
  8
0
  0
BLOCK
  8
0
  2
LCA1R
 70
0
 10
0
 20
0
  0
SOLID
  8
1
 62
7 
 10
0
 20
0
 11
1.4
 21
-0.275
 12
1.4
 22
0.275
 13
1.4
 23
0.275
  0
ENDBLK
  8
0
  0
BLOCK
  8
0
  2
LCA2R
 70
0
 10
0
 20
0
  0
SOLID
  8
1
 62
7 
 10
0
 20
0
 11
1.65
 21
-0.525
 12
1.65
 22
0.525
 13
1.65
 23
0.525
  0
ENDBLK
  8
0
  0
BLOCK
  8
0
  2
LCA3R
 70
0
 10
0
 20
0
  0
SOLID
  8
1
 62
7 
 10
0
 20
0
 11
2.15
 21
-1.15
 12
2.15
 22
1.15
 13
2.15
 23
1.15
  0
ENDBLK
  8
0
  0
BLOCK
  8
0
  2
B4674_00991563
 70
0
 10
0
 20
0
  0
POLYLINE
  8
1
  6
DASHDOT
 66
1
  0
VERTEX
  8
1
 10
-54
 20
22
  0
VERTEX
  8
1
 10
54
 20
22
  0
VERTEX
  8
1
 10
54
 20
-18
  0
VERTEX
  8
1
 10
-54
 20
-18
  0
VERTEX
  8
1
 10
-54
 20
22
  0
SEQEND
  8
1
  0
LINE
  8
1
 10
46
 20
-20
 11
46
 21
-18
  0
LINE
  8
1
 10
6
 20
-18
 11
6
 21
-22
  0
LINE
  8
1
 10
-32
 20
-22
 11
-32
 21
-18
  0
TEXT
  8
1
 40
2.475
 41
0.75
  1
3
  7
STANDARD
 73
2
 10
-57.9345238095238
 20
-11.6190476190476
 11
-57.9345238095238
 21
-11.6190476190476
  0
TEXT
  8
1
 40
2.475
 41
0.75
  1
1
  7
STANDARD
 72
2
 10
-54.4655974188913
 20
-2.11554957911929
 11
-54.4655974188913
 21
-2.11554957911929
  0
LINE
  8
1
 10
-54
 20
-8
 11
-58
 21
-8
  0
LINE
  8
1
 10
-58
 20
-4
 11
-54
 21
-4
  0
LINE
  8
1
  6
DASHDOT
 10
58
 20
-4
 11
54
 21
-4
  0
TEXT
  8
1
 40
2.475
 41
0.75
  1
2
  7
STANDARD
 73
2
 10
57.1584699453552
 20
-0.983606557377025
 11
57.1584699453552
 21
-0.983606557377025
  0
TEXT
  8
1
 40
2.475
 41
0.75
  1
3
  7
STANDARD
 73
2
 10
2
 20
-22
 11
2
 21
-22
  0
LINE
  8
1
 10
38
 20
-4
 11
54
 21
-4
  0
LINE
  8
1
 10
46
 20
-18
 11
46
 21
4
  0
POLYLINE
  8
1
 66
1
  0
VERTEX
  8
1
 10
6
 20
-18
  0
VERTEX
  8
1
 10
6
 20
-8
  0
VERTEX
  8
1
 10
10
 20
-8
  0
SEQEND
  8
1
  0
LINE
  8
1
 10
10
 20
-4
 11
5.6262013264456
 21
-4
  0
LINE
  8
1
 10
-32
 20
-18
 11
-32
 21
-9.61361455522274
  0
LINE
  8
1
 10
-22
 20
-4
 11
-26.3432187464077
 21
-4
  0
LINE
  8
1
 10
-42
 20
-4
 11
-37.6567812535923
 21
-4
  0
LINE
  8
1
 10
-50
 20
-8
 11
-54
 21
-8
  0
LINE
  8
1
 10
-54
 20
-4
 11
-50
 21
-4
  0
LINE
  8
1
 10
-14
 20
-4
 11
-5.67023217591376
 21
-4
  0
POLYLINE
  8
1
 70
1
 66
1
 40
0.5
 41
0.5
  0
VERTEX
  8
1
 10
23.75
 20
-4
 42
1
  0
VERTEX
  8
1
 10
24.25
 20
-4
 42
1
  0
SEQEND
  8
1
  0
LINE
  8
1
 10
18
 20
-4
 11
30
 21
-4
  0
POLYLINE
  8
1
 70
1
 66
1
 40
0.5
 41
0.5
  0
VERTEX
  8
1
 10
39.75
 20
-4
 42
1
  0
VERTEX
  8
1
 10
40.25
 20
-4
 42
1
  0
SEQEND
  8
1
  0
POLYLINE
  8
1
 70
1
 66
1
 40
0.5
 41
0.5
  0
VERTEX
  8
1
 10
31.75
 20
18
 42
1
  0
VERTEX
  8
1
 10
32.25
 20
18
 42
1
  0
SEQEND
  8
1
  0
POLYLINE
  8
1
 66
1
  0
VERTEX
  8
1
 10
24
 20
12
  0
VERTEX
  8
1
 10
24
 20
18
  0
VERTEX
  8
1
 10
32
 20
18
  0
VERTEX
  8
1
 10
32
 20
14
  0
VERTEX
  8
1
 10
32
 20
18
  0
VERTEX
  8
1
 10
40
 20
18
  0
VERTEX
  8
1
 10
40
 20
-4
  0
SEQEND
  8
1
  0
POLYLINE
  8
1
 70
1
 66
1
 40
0.5
 41
0.5
  0
VERTEX
  8
1
 10
-10.25
 20
-4
 42
1
  0
VERTEX
  8
1
 10
-9.75
 20
-4
 42
1
  0
SEQEND
  8
1
  0
LINE
  8
1
 10
-10
 20
2
 11
-10
 21
-4
  0
LINE
  8
1
 10
46
 20
-20
 11
46
 21
-22
  0
INSERT
  8
1
  2
LCBP1
 10
46
 20
-22
 50
-90
  0
LINE
  8
1
 10
-0.0133779264214127
 20
-1.67351813781808
 11
-0.0133779264214127
 21
1.64019036116666
  0
POLYLINE
  8
1
 66
1
  0
VERTEX
  8
1
 10
-0.0133779264215027
 20
1.64019036116662
  0
VERTEX
  8
1
 10
-5.67023217591375
 20
-4.01666388832575
  0
VERTEX
  8
1
 10
-0.0133779264215027
 20
-9.67351813781799
  0
VERTEX
  8
1
 10
5.643476323071
 20
-4.01666388832575
  0
VERTEX
  8
1
 10
-0.0133779264215027
 20
1.64019036116662
  0
SEQEND
  8
1
  0
LINE
  8
1
 10
-34.0368868636663
 20
-7.67979989061747
 11
-30.0369017312043
 21
-7.67979989061747
  0
POLYLINE
  8
1
 66
1
  0
VERTEX
  8
1
 10
-34.0368868636663
 20
-7.6798270173535
  0
VERTEX
  8
1
 10
-32.0369139904024
 20
-9.6797998906175
  0
VERTEX
  8
1
 10
-30.0369017312043
 20
-7.6797876314195
  0
SEQEND
  8
1
  0
LINE
  8
1
  6
DASHED
 10
-32.0368998568995
 20
-7.67979989061747
 11
-32.0368998568995
 21
1.63390860836725
  0
POLYLINE
  8
1
 66
1
  0
VERTEX
  8
1
 10
-32.0369139904024
 20
1.63390860836728
  0
VERTEX
  8
1
 10
-37.6937682398947
 20
-4.022945641125
  0
VERTEX
  8
1
 10
-32.0369139904024
 20
-9.6797998906175
  0
VERTEX
  8
1
 10
-26.38005974091
 20
-4.022945641125
  0
VERTEX
  8
1
 10
-32.0369139904024
 20
1.63390860836728
  0
SEQEND
  8
1
  0
LINE
  8
1
 10
-8.23223304703364
 20
4.23223304703364
 11
-11.7677669529664
 21
7.76776695296637
  0
INSERT
  8
1
  2
LCA1
 10
-11.7677669529664
 20
7.76776695296637
 50
135
  0
CIRCLE
  8
1
 10
-10
 20
6
 40
4
  0
LINE
  8
1
 10
50.4502923976608
 20
11.5
 11
41.4502923976608
 21
13.5
  0
INSERT
  8
1
  2
LCA1
 10
41.4502923976608
 20
13.5
 50
167.471192290848
  0
POLYLINE
  8
1
 66
1
  0
VERTEX
  8
1
 10
45.9502923976607
 20
15
  0
VERTEX
  8
1
 10
47.9502923976607
 20
14.5833333333333
  0
VERTEX
  8
1
 10
43.9502923976607
 20
13.75
  0
VERTEX
  8
1
 10
47.9502923976607
 20
12.9166666666667
  0
VERTEX
  8
1
 10
43.9502923976607
 20
12.0833333333333
  0
VERTEX
  8
1
 10
47.9502923976607
 20
11.25
  0
VERTEX
  8
1
 10
43.9502923976607
 20
10.4166666666667
  0
VERTEX
  8
1
 10
45.9502923976607
 20
10
  0
SEQEND
  8
1
  0
POLYLINE
  8
1
 66
1
  0
VERTEX
  8
1
 10
46.2502923976607
 20
5.15
  0
VERTEX
  8
1
 10
46.2502923976607
 20
6.15
  0
VERTEX
  8
1
 10
45.2502923976607
 20
8.65
  0
SEQEND
  8
1
  0
LINE
  8
1
 10
46.2502923976608
 20
7.84999999999999
 11
46.2502923976608
 21
8.84999999999999
  0
POLYLINE
  8
1
 66
1
  0
VERTEX
  8
1
 10
42.9502923976607
 20
4
  0
VERTEX
  8
1
 10
48.9502923976607
 20
4
  0
VERTEX
  8
1
 10
48.9502923976607
 20
10
  0
VERTEX
  8
1
 10
42.9502923976607
 20
10
  0
VERTEX
  8
1
 10
42.9502923976607
 20
4
  0
SEQEND
  8
1
  0
LINE
  8
1
 10
24
 20
12
 11
24
 21
-4
  0
LINE
  8
1
 10
20.6338956387624
 20
5.44343478654003
 11
27.6332791627724
 21
2.44199675056171
  0
INSERT
  8
1
  2
LCA1
 10
27.6332791627724
 20
2.44199675056171
 50
-23.2103615165519
  0
ARC
  8
1
 10
14
 20
3.92504639081546
 40
9
 50
340.528596800055
 51
19.4710505793386
  0
ARC
  8
1
 10
34
 20
3.92504639081546
 40
9
 50
160.52865870751
 51
199.47139531546
  0
LINE
  8
1
 10
30
 20
14
 11
32
 21
10.5358983848622
  0
LINE
  8
1
 10
34
 20
14
 11
32
 21
10.5358983848622
  0
LINE
  8
1
 10
30
 20
4
 11
38
 21
4
  0
INSERT
  8
1
  2
LCA1
 10
38
 20
4
 50
0
  0
POLYLINE
  8
1
 66
1
  0
VERTEX
  8
1
 10
38
 20
8
  0
VERTEX
  8
1
 10
30
 20
8
  0
VERTEX
  8
1
 10
30
 20
0
  0
VERTEX
  8
1
 10
38
 20
0
  0
VERTEX
  8
1
 10
38
 20
8
  0
SEQEND
  8
1
  0
LINE
  8
1
 10
38
 20
-4
 11
36
 21
-4
  0
INSERT
  8
1
  2
LCBP1
 10
36
 20
-4
 50
-180
  0
LINE
  8
1
 10
30
 20
-4
 11
32
 21
-4
  0
INSERT
  8
1
  2
LCBP1
 10
32
 20
-4
 50
0
  0
POLYLINE
  8
1
 66
1
  0
VERTEX
  8
1
 10
38
 20
0
  0
VERTEX
  8
1
 10
30
 20
0
  0
VERTEX
  8
1
 10
30
 20
-8
  0
VERTEX
  8
1
 10
38
 20
-8
  0
VERTEX
  8
1
 10
38
 20
0
  0
SEQEND
  8
1
  0
POLYLINE
  8
1
 66
1
  0
VERTEX
  8
1
 10
34
 20
14
  0
VERTEX
  8
1
 10
30
 20
14
  0
VERTEX
  8
1
 10
30
 20
8
  0
VERTEX
  8
1
 10
34
 20
8
  0
VERTEX
  8
1
 10
34
 20
14
  0
SEQEND
  8
1
  0
POLYLINE
  8
1
 66
1
  0
VERTEX
  8
1
 10
32
 20
-13
  0
VERTEX
  8
1
 10
30
 20
-12.5833333333333
  0
VERTEX
  8
1
 10
34
 20
-11.75
  0
VERTEX
  8
1
 10
30
 20
-10.9166666666667
  0
VERTEX
  8
1
 10
34
 20
-10.0833333333332
  0
VERTEX
  8
1
 10
30
 20
-9.25
  0
VERTEX
  8
1
 10
34
 20
-8.41666666666675
  0
VERTEX
  8
1
 10
32
 20
-8
  0
SEQEND
  8
1
  0
POLYLINE
  8
1
 66
1
  0
VERTEX
  8
1
 10
-42
 20
6
  0
VERTEX
  8
1
 10
-50
 20
6
  0
VERTEX
  8
1
 10
-50
 20
-2
  0
VERTEX
  8
1
 10
-42
 20
-2
  0
VERTEX
  8
1
 10
-42
 20
6
  0
SEQEND
  8
1
  0
LINE
  8
1
 10
-50
 20
0
 11
-48
 21
0
  0
INSERT
  8
1
  2
LCBP1
 10
-48
 20
0
 50
0
  0
LINE
  8
1
 10
-50
 20
4
 11
-42
 21
4
  0
INSERT
  8
1
  2
LCA1
 10
-42
 20
4
 50
0
  0
LINE
  8
1
 10
-50
 20
-4
 11
-48
 21
-4
  0
INSERT
  8
1
  2
LCBP1
 10
-48
 20
-4
 50
0
  0
POLYLINE
  8
1
 66
1
  0
VERTEX
  8
1
 10
-42
 20
-2
  0
VERTEX
  8
1
 10
-50
 20
-2
  0
VERTEX
  8
1
 10
-50
 20
-10
  0
VERTEX
  8
1
 10
-42
 20
-10
  0
VERTEX
  8
1
 10
-42
 20
-2
  0
SEQEND
  8
1
  0
LINE
  8
1
 10
-42
 20
-4
 11
-50
 21
-8
  0
INSERT
  8
1
  2
LCA1
 10
-50
 20
-8
 50
-153.434948822922
  0
LINE
  8
1
 10
-46
 20
9
 11
-44
 21
9
  0
LINE
  8
1
 10
-49.5
 20
12
 11
-46.5
 21
12
  0
LINE
  8
1
 10
-47
 20
10.25
 11
-47
 21
12
  0
POLYLINE
  8
1
 66
1
  0
VERTEX
  8
1
 10
-47
 20
10.25
  0
VERTEX
  8
1
 10
-47
 20
9.75
  0
VERTEX
  8
1
 10
-48.2990381056767
 20
9
  0
VERTEX
  8
1
 10
-47
 20
8.25
  0
VERTEX
  8
1
 10
-47
 20
7.75
  0
SEQEND
  8
1
  0
LINE
  8
1
 10
-47
 20
6
 11
-47
 21
7.75
  0
LINE
  8
1
 10
-49
 20
6
 11
-49
 21
12
  0
POLYLINE
  8
1
 66
1
  0
VERTEX
  8
1
 10
18
 20
6
  0
VERTEX
  8
1
 10
10
 20
6
  0
VERTEX
  8
1
 10
10
 20
-2
  0
VERTEX
  8
1
 10
18
 20
-2
  0
VERTEX
  8
1
 10
18
 20
6
  0
SEQEND
  8
1
  0
LINE
  8
1
 10
10
 20
0
 11
12
 21
0
  0
INSERT
  8
1
  2
LCBP1
 10
12
 20
0
 50
0
  0
LINE
  8
1
 10
10
 20
4
 11
18
 21
4
  0
INSERT
  8
1
  2
LCA1
 10
18
 20
4
 50
0
  0
LINE
  8
1
 10
10
 20
-4
 11
12
 21
-4
  0
INSERT
  8
1
  2
LCBP1
 10
12
 20
-4
 50
0
  0
POLYLINE
  8
1
 66
1
  0
VERTEX
  8
1
 10
18
 20
-2
  0
VERTEX
  8
1
 10
10
 20
-2
  0
VERTEX
  8
1
 10
10
 20
-10
  0
VERTEX
  8
1
 10
18
 20
-10
  0
VERTEX
  8
1
 10
18
 20
-2
  0
SEQEND
  8
1
  0
LINE
  8
1
 10
18
 20
-4
 11
10
 21
-8
  0
INSERT
  8
1
  2
LCA1
 10
10
 20
-8
 50
-153.434948822922
  0
LINE
  8
1
 10
10
 20
10
 11
14
 21
8
  0
POLYLINE
  8
1
 66
1
  0
VERTEX
  8
1
 10
14
 20
12
  0
VERTEX
  8
1
 10
10
 20
12
  0
VERTEX
  8
1
 10
10
 20
6
  0
VERTEX
  8
1
 10
14
 20
6
  0
VERTEX
  8
1
 10
14
 20
12
  0
SEQEND
  8
1
  0
LINE
  8
1
 10
17.5
 20
10
 11
17.5
 21
6
  0
LINE
  8
1
 10
18
 20
10
 11
15
 21
10
  0
LINE
  8
1
 10
15.5
 20
10
 11
15.5
 21
6
  0
LINE
  8
1
 10
14
 20
6
 11
18
 21
6
  0
POLYLINE
  8
1
 66
1
  0
VERTEX
  8
1
 10
12
 20
-15
  0
VERTEX
  8
1
 10
10
 20
-14.5833333333333
  0
VERTEX
  8
1
 10
14
 20
-13.75
  0
VERTEX
  8
1
 10
10
 20
-12.9166666666667
  0
VERTEX
  8
1
 10
14
 20
-12.0833333333333
  0
VERTEX
  8
1
 10
10
 20
-11.25
  0
VERTEX
  8
1
 10
14
 20
-10.4166666666667
  0
VERTEX
  8
1
 10
12
 20
-10
  0
SEQEND
  8
1
  0
POLYLINE
  8
1
 70
1
 66
1
 40
0.5
 41
0.5
  0
VERTEX
  8
1
 10
45.75
 20
-4
 42
1
  0
VERTEX
  8
1
 10
46.25
 20
-4
 42
1
  0
SEQEND
  8
1
  0
POLYLINE
  8
1
 66
1
  0
VERTEX
  8
1
 10
42
 20
-1
  0
VERTEX
  8
1
 10
50
 20
-1
  0
VERTEX
  8
1
 10
50
 20
-7
  0
VERTEX
  8
1
 10
42
 20
-7
  0
VERTEX
  8
1
 10
42
 20
-1
  0
SEQEND
  8
1
  0
LINE
  8
1
 10
-24.4425978826423
 20
3.27036371433004
 11
-15.5571264213402
 21
5.72971259368521
  0
INSERT
  8
1
  2
LCA1
 10
-15.5571264213402
 20
5.72971259368521
 50
15.4711922908485
  0
POLYLINE
  8
1
 66
1
  0
VERTEX
  8
1
 10
-19.9998889119004
 20
2.0000231433541
  0
VERTEX
  8
1
 10
-17.9998889119004
 20
2.4166898100208
  0
VERTEX
  8
1
 10
-21.9998889119004
 20
3.2500231433541
  0
VERTEX
  8
1
 10
-17.9998889119004
 20
4.08335647668745
  0
VERTEX
  8
1
 10
-21.9998889119004
 20
4.9166898100208
  0
VERTEX
  8
1
 10
-17.9998889119004
 20
5.7500231433541
  0
VERTEX
  8
1
 10
-21.9998889119004
 20
6.5833564766874
  0
VERTEX
  8
1
 10
-19.9998889119004
 20
7.0000231433541
  0
SEQEND
  8
1
  0
POLYLINE
  8
1
 66
1
  0
VERTEX
  8
1
 10
-22
 20
1
  0
VERTEX
  8
1
 10
-24
 20
0
  0
VERTEX
  8
1
 10
-22
 20
-1
  0
SEQEND
  8
1
  0
POLYLINE
  8
1
  6
DOT
 66
1
  0
VERTEX
  8
1
 10
-20
 20
-6
  0
VERTEX
  8
1
 10
-20
 20
-10
  0
VERTEX
  8
1
 10
-12
 20
-10
  0
VERTEX
  8
1
 10
-12
 20
-6
  0
VERTEX
  8
1
 10
-14
 20
-4
  0
SEQEND
  8
1
  0
POLYLINE
  8
1
 66
1
  0
VERTEX
  8
1
 10
-22
 20
-6
  0
VERTEX
  8
1
 10
-14
 20
-6
  0
VERTEX
  8
1
 10
-14
 20
2
  0
VERTEX
  8
1
 10
-22
 20
2
  0
VERTEX
  8
1
 10
-22
 20
-6
  0
SEQEND
  8
1
  0
LINE
  8
1
 10
-14
 20
-4
 11
-22
 21
-4
  0
INSERT
  8
1
  2
LCA1
 10
-22
 20
-4
 50
-180
  0
INSERT
  8
1
  2
LCA1R
 10
-14
 20
-4
 50
-180
  0
CIRCLE
  8
CONNECTIONS
 10
-58
 20
-4
 40
0
  0
CIRCLE
  8
CONNECTIONS
 10
-58
 20
-8
 40
0
  0
CIRCLE
  8
CONNECTIONS
 10
58
 20
-4
 40
0
  0
CIRCLE
  8
CONNECTIONS
 10
6
 20
-22
 40
0
  0
CIRCLE
  8
CONNECTIONS
 10
46
 20
-20
 40
0
  0
CIRCLE
  8
CONNECTIONS
 10
12
 20
12
 40
0
  0
CIRCLE
  8
CONNECTIONS
 10
45.9502923976607
 20
10
 40
0
  0
ENDBLK
  8
0
  0
ENDSEC
  0
SECTION
  2
ENTITIES
  0
INSERT
  8
1
  2
B4674_00991563
 10
58
 20
22
  0
ENDSEC
  0
EOF
