  0
SECTION
  2
HEADER
  9
$LIMMIN
 10
0
 20
0
  9
$LIMMAX
 10
52.5
 20
74.25
  9
$EXTMIN
 10
0
 20
94
  9
$EXTMAX
 10
0
 20
40
  0
ENDSEC
  0
SECTION
  2
TABLES
  0
TABLE
  2
LTYPE
 70
9
  0
LTYPE
  2
CONTINUOUS
 70
64
  3
Solid line
 72
65
 73
0
 40
0
  0
LTYPE
  2
DASHED
 70
64
  3
__ __ __ __ __ __ __ __ __
 72
65
 73
2
 40
0.75
 49
0.5
 49
-0.25
  0
LTYPE
  2
DOT
 70
64
  3
...........................
 72
65
 73
2
 40
0.25
 49
0
 49
-0.25
  0
LTYPE
  2
DASHDOT
 70
64
  3
__ . __ . __ . __ . __ . __ . 
 72
65
 73
4
 40
1
 49
0.5
 49
-0.25
 49
0
 49
-0.25
  0
ENDTAB
  0
TABLE
  2
LAYER
 70
10
  0
LAYER
  2
1
 70
0
 62
7
  6
CONTINUOUS
  0
LAYER
  2
CONNECTIONS
 70
0
 62
-7
  6
CONTINUOUS
  0
ENDTAB
  0
ENDSEC
  0
SECTION
  2
BLOCKS
  0
BLOCK
  8
0
  2
TRICON
 70
0
 10
0
 20
0
  0
POLYLINE
  8
1
 70
1
 66
1
 40
0.5
 41
0.5
  0
VERTEX
  8
1
 10
-0.25
 20
0
 42
1
  0
VERTEX
  8
1
 10
0.25
 20
0
 42
1
  0
SEQEND
  8
1
  0
ENDBLK
  8
0
  0
BLOCK
  8
0
  2
TRICONSMALL
 70
0
 10
0
 20
0
  0
POLYLINE
  8
1
 70
1
 66
1
 40
0.25
 41
0.25
  0
VERTEX
  8
1
 10
-0.125
 20
0
 42
1
  0
VERTEX
  8
1
 10
0.125
 20
0
 42
1
  0
SEQEND
  8
1
  0
ENDBLK
  8
0
  0
BLOCK
  8
0
  2
TRICONCIRCLE
 70
0
 10
0
 20
0
  0
CIRCLE
  8
1
 10
0
 20
0
 40
0.5
  0
ENDBLK
  8
0
  0
BLOCK
  8
0
  2
LCBP0
 70
0
 10
0
 20
0
  0
LINE
  8
1
 10
0
 20
-0.46875
 11
0
 21
0.46875
  0
ENDBLK
  8
0
  0
BLOCK
  8
0
  2
LCBP1
 70
0
 10
0
 20
0
  0
LINE
  8
1
 10
0
 20
-0.625
 11
0
 21
0.625
  0
ENDBLK
  8
0
  0
BLOCK
  8
0
  2
LCBP2
 70
0
 10
0
 20
0
  0
LINE
  8
1
 10
0
 20
-0.9375
 11
0
 21
0.9375
  0
ENDBLK
  8
0
  0
BLOCK
  8
0
  2
LCA1
 70
0
 10
0
 20
0
  0
SOLID
  8
1
 62
7 
 10
0
 20
0
 11
-1.4
 21
-0.275
 12
-1.4
 22
0.275
 13
-1.4
 23
0.275
  0
ENDBLK
  8
0
  0
BLOCK
  8
0
  2
LCA2
 70
0
 10
0
 20
0
  0
SOLID
  8
1
 62
7 
 10
0
 20
0
 11
-1.65
 21
-0.525
 12
-1.65
 22
0.525
 13
-1.65
 23
0.525
  0
ENDBLK
  8
0
  0
BLOCK
  8
0
  2
LCA3
 70
0
 10
0
 20
0
  0
SOLID
  8
1
 62
7 
 10
0
 20
0
 11
-2.15
 21
-1.15
 12
-2.15
 22
1.15
 13
-2.15
 23
1.15
  0
ENDBLK
  8
0
  0
BLOCK
  8
0
  2
LCA1R
 70
0
 10
0
 20
0
  0
SOLID
  8
1
 62
7 
 10
0
 20
0
 11
1.4
 21
-0.275
 12
1.4
 22
0.275
 13
1.4
 23
0.275
  0
ENDBLK
  8
0
  0
BLOCK
  8
0
  2
LCA2R
 70
0
 10
0
 20
0
  0
SOLID
  8
1
 62
7 
 10
0
 20
0
 11
1.65
 21
-0.525
 12
1.65
 22
0.525
 13
1.65
 23
0.525
  0
ENDBLK
  8
0
  0
BLOCK
  8
0
  2
LCA3R
 70
0
 10
0
 20
0
  0
SOLID
  8
1
 62
7 
 10
0
 20
0
 11
2.15
 21
-1.15
 12
2.15
 22
1.15
 13
2.15
 23
1.15
  0
ENDBLK
  8
0
  0
BLOCK
  8
0
  2
B346_00991561
 70
0
 10
0
 20
0
  0
TEXT
  8
1
 40
2.475
 41
0.75
  1
11
  7
STANDARD
 10
27.5
 20
-19.7625
  0
TEXT
  8
1
 40
2.475
 41
0.75
  1
82/84
  7
STANDARD
 10
7.5
 20
-19.7625
  0
TEXT
  8
1
 40
2.475
 41
0.75
  1
3/5
  7
STANDARD
 10
-4
 20
-19.7625
  0
TEXT
  8
1
 40
2.475
 41
0.75
  1
1
  7
STANDARD
 10
-18.5
 20
-19.7625
  0
TEXT
  8
1
 40
2.475
 41
0.75
  1
12/14
  7
STANDARD
 10
-46.5
 20
-19.7625
  0
LINE
  8
1
 10
33
 20
-7.99999999999999
 11
33
 21
-20
  0
LINE
  8
1
 10
19
 20
-20
 11
19
 21
-12
  0
LINE
  8
1
 10
3
 20
-16
 11
3
 21
-20
  0
LINE
  8
1
 10
-15
 20
-16
 11
-15
 21
-20
  0
LINE
  8
1
 10
-35
 20
-16
 11
-35
 21
-20
  0
POLYLINE
  8
1
 70
1
 66
1
 40
0.6
 41
0.6
  0
VERTEX
  8
1
 10
18.7
 20
-12
 42
1
  0
VERTEX
  8
1
 10
19.3
 20
-12
 42
1
  0
SEQEND
  8
1
  0
POLYLINE
  8
1
 70
1
 66
1
 40
0.6
 41
0.6
  0
VERTEX
  8
1
 10
14.7
 20
-10
 42
1
  0
VERTEX
  8
1
 10
15.3
 20
-10
 42
1
  0
SEQEND
  8
1
  0
POLYLINE
  8
1
 70
1
 66
1
 40
0.6
 41
0.6
  0
VERTEX
  8
1
 10
-35.3
 20
-10
 42
1
  0
VERTEX
  8
1
 10
-34.7
 20
-10
 42
1
  0
SEQEND
  8
1
  0
TEXT
  8
1
 40
2.475
 41
0.75
  1
2
  7
STANDARD
 72
2
 73
2
 10
32.2005640103078
 20
18.3508533086984
 11
32.2005640103078
 21
18.3508533086984
  0
LINE
  8
1
  6
DOT
 10
43
 20
-10
 11
43
 21
-8
  0
LINE
  8
1
  6
DOT
 10
15
 20
-10
 11
43
 21
-10
  0
LINE
  8
1
 10
40
 20
-6
 11
37
 21
-6
  0
LINE
  8
1
 10
40
 20
-6
 11
43
 21
-4
  0
LINE
  8
1
 10
43
 20
-8
 11
40
 21
-6
  0
LINE
  8
1
 10
43
 20
-4
 11
43
 21
-8
  0
LINE
  8
1
 10
43
 20
-4
 11
37
 21
-4
  0
LINE
  8
1
 10
43
 20
-8
 11
37
 21
-8
  0
LINE
  8
1
 10
33
 20
0
 11
33
 21
20
  0
LINE
  8
1
  6
DOT
 10
15
 20
-10
 11
15
 21
-8
  0
LINE
  8
1
  6
DOT
 10
-31
 20
-8
 11
-31
 21
-12
  0
LINE
  8
1
  6
DOT
 10
15
 20
-10
 11
-35
 21
-10
  0
LINE
  8
1
  6
DOT
 10
-31
 20
-12
 11
19
 21
-12
  0
LINE
  8
1
 10
25
 20
-8
 11
25
 21
0
  0
INSERT
  8
1
  2
LCA1
 10
25
 20
0
 50
90
  0
POLYLINE
  8
1
 66
1
  0
VERTEX
  8
1
 10
21
 20
0
  0
VERTEX
  8
1
 10
29
 20
0
  0
VERTEX
  8
1
 10
29
 20
-8
  0
VERTEX
  8
1
 10
21
 20
-8
  0
VERTEX
  8
1
 10
21
 20
0
  0
SEQEND
  8
1
  0
LINE
  8
1
 10
33
 20
0
 11
33
 21
-2
  0
INSERT
  8
1
  2
LCBP1
 10
33
 20
-2
 50
-90
  0
LINE
  8
1
 10
33
 20
-8
 11
33
 21
-6
  0
INSERT
  8
1
  2
LCBP1
 10
33
 20
-6
 50
90
  0
POLYLINE
  8
1
 66
1
  0
VERTEX
  8
1
 10
29
 20
0
  0
VERTEX
  8
1
 10
37
 20
0
  0
VERTEX
  8
1
 10
37
 20
-8
  0
VERTEX
  8
1
 10
29
 20
-8
  0
VERTEX
  8
1
 10
29
 20
0
  0
SEQEND
  8
1
  0
LINE
  8
1
 10
11
 20
-0.5
 11
15
 21
-0.5
  0
LINE
  8
1
 10
11
 20
0
 11
11
 21
-3
  0
LINE
  8
1
 10
11
 20
-2.5
 11
15
 21
-2.5
  0
LINE
  8
1
 10
15
 20
-4
 11
15
 21
0
  0
LINE
  8
1
 10
19
 20
-8
 11
19
 21
-12
  0
LINE
  8
1
 10
11
 20
-8
 11
13
 21
-4
  0
POLYLINE
  8
1
 66
1
  0
VERTEX
  8
1
 10
9
 20
-4
  0
VERTEX
  8
1
 10
15
 20
-4
  0
VERTEX
  8
1
 10
15
 20
-8
  0
VERTEX
  8
1
 10
9
 20
-8
  0
VERTEX
  8
1
 10
9
 20
-4
  0
SEQEND
  8
1
  0
LINE
  8
1
 10
18
 20
-6
 11
15
 21
-8
  0
LINE
  8
1
 10
15
 20
-4
 11
18
 21
-6
  0
LINE
  8
1
 10
15
 20
-8
 11
21
 21
-8
  0
LINE
  8
1
 10
15
 20
-4
 11
15
 21
-8
  0
LINE
  8
1
 10
21
 20
-4
 11
15
 21
-4
  0
LINE
  8
1
 10
-39
 20
-0.5
 11
-35
 21
-0.5
  0
LINE
  8
1
 10
-39
 20
0
 11
-39
 21
-3
  0
LINE
  8
1
 10
-39
 20
-2.5
 11
-35
 21
-2.5
  0
LINE
  8
1
 10
-35
 20
-4
 11
-35
 21
0
  0
LINE
  8
1
 10
0
 20
4
 11
0
 21
-6
  0
LINE
  8
1
 10
-4
 20
-6
 11
0
 21
-6
  0
LINE
  8
1
 10
-4
 20
-7
 11
-6
 21
-6
  0
LINE
  8
1
 10
-4
 20
-5
 11
-4
 21
-7
  0
LINE
  8
1
 10
-6
 20
-6
 11
-4
 21
-5
  0
LINE
  8
1
 10
-6
 20
-6
 11
-9
 21
-6
  0
POLYLINE
  8
1
 66
1
  0
VERTEX
  8
1
 10
-11
 20
-5
  0
VERTEX
  8
1
 10
-9
 20
-5
  0
VERTEX
  8
1
 10
-9
 20
-8
  0
VERTEX
  8
1
 10
-11
 20
-8
  0
VERTEX
  8
1
 10
-11
 20
-5
  0
SEQEND
  8
1
  0
POLYLINE
  8
1
 66
1
  0
VERTEX
  8
1
 10
-6
 20
-1.99999999999999
  0
VERTEX
  8
1
 10
-6.41666666666665
 20
-3.99999999999999
  0
VERTEX
  8
1
 10
-7.25
 20
7.105427357601E-15
  0
VERTEX
  8
1
 10
-8.08333333333335
 20
-3.99999999999999
  0
VERTEX
  8
1
 10
-8.91666666666665
 20
7.105427357601E-15
  0
VERTEX
  8
1
 10
-9.75
 20
-3.99999999999999
  0
VERTEX
  8
1
 10
-10.5833333333333
 20
7.105427357601E-15
  0
VERTEX
  8
1
 10
-11
 20
-1.99999999999999
  0
SEQEND
  8
1
  0
TEXT
  8
1
 40
2.475
 41
0.75
  1
4
  7
STANDARD
 72
2
 73
2
 10
-7.61327099656289
 20
18.0660347144494
 11
-7.61327099656289
 21
18.0660347144494
  0
POLYLINE
  8
1
 70
1
 66
1
 40
0.6
 41
0.6
  0
VERTEX
  8
1
 10
-15.3
 20
4
 42
1
  0
VERTEX
  8
1
 10
-14.7
 20
4
 42
1
  0
SEQEND
  8
1
  0
LINE
  8
1
 10
3
 20
-12
 11
3
 21
-16
  0
LINE
  8
1
 10
-15
 20
-12
 11
-15
 21
-16
  0
LINE
  8
1
 10
-35
 20
-12
 11
-35
 21
-16
  0
LINE
  8
1
 10
-7
 20
11
 11
-7
 21
20
  0
ARC
  8
1
 10
-7
 20
20
 40
9
 50
250.528596800055
 51
289.471050579339
  0
ARC
  8
1
 10
-7
 20
0
 40
9
 50
70.52865870751
 51
109.47139531546
  0
LINE
  8
1
 10
-35
 20
-8
 11
-35
 21
-12
  0
LINE
  8
1
 10
-15
 20
-8
 11
-15
 21
-12
  0
LINE
  8
1
 10
3
 20
10
 11
3
 21
-12
  0
LINE
  8
1
 10
-15
 20
10
 11
3
 21
10
  0
LINE
  8
1
 10
-15
 20
0
 11
-15
 21
10
  0
LINE
  8
1
 10
0
 20
4
 11
-15
 21
4
  0
LINE
  8
1
 10
-39
 20
-8
 11
-37
 21
-4
  0
POLYLINE
  8
1
 66
1
  0
VERTEX
  8
1
 10
-41
 20
-4
  0
VERTEX
  8
1
 10
-35
 20
-4
  0
VERTEX
  8
1
 10
-35
 20
-8
  0
VERTEX
  8
1
 10
-41
 20
-8
  0
VERTEX
  8
1
 10
-41
 20
-4
  0
SEQEND
  8
1
  0
LINE
  8
1
 10
-27
 20
-2
 11
-27
 21
-8
  0
LINE
  8
1
 10
-32
 20
-6
 11
-35
 21
-8
  0
LINE
  8
1
 10
-35
 20
-4
 11
-32
 21
-6
  0
LINE
  8
1
 10
-35
 20
-8
 11
-29
 21
-8
  0
LINE
  8
1
 10
-35
 20
-4
 11
-35
 21
-8
  0
LINE
  8
1
 10
-29
 20
-4
 11
-35
 21
-4
  0
LINE
  8
1
 10
-29
 20
-2
 11
-27
 21
-2
  0
LINE
  8
1
 10
-29
 20
-8
 11
-27
 21
-8
  0
LINE
  8
1
 10
-29
 20
-2
 11
-29
 21
-8
  0
POLYLINE
  8
1
 66
1
  0
VERTEX
  8
1
 10
-47
 20
16
  0
VERTEX
  8
1
 10
47
 20
16
  0
VERTEX
  8
1
 10
47
 20
-16
  0
VERTEX
  8
1
 10
-47
 20
-16
  0
VERTEX
  8
1
 10
-47
 20
16
  0
SEQEND
  8
1
  0
LINE
  8
1
 10
-15
 20
7.105427357601E-15
 11
-15
 21
-1.99999999999999
  0
INSERT
  8
1
  2
LCBP1
 10
-15
 20
-1.99999999999999
 50
-90
  0
LINE
  8
1
 10
-15
 20
-7.99999999999999
 11
-15
 21
-5.99999999999999
  0
INSERT
  8
1
  2
LCBP1
 10
-15
 20
-5.99999999999999
 50
90
  0
POLYLINE
  8
1
 66
1
  0
VERTEX
  8
1
 10
-19
 20
7.105427357601E-15
  0
VERTEX
  8
1
 10
-11
 20
7.105427357601E-15
  0
VERTEX
  8
1
 10
-11
 20
-7.99999999999999
  0
VERTEX
  8
1
 10
-19
 20
-7.99999999999999
  0
VERTEX
  8
1
 10
-19
 20
7.105427357601E-15
  0
SEQEND
  8
1
  0
LINE
  8
1
 10
-23
 20
-7.99999999999999
 11
-23
 21
7.105427357601E-15
  0
INSERT
  8
1
  2
LCA1
 10
-23
 20
7.105427357601E-15
 50
90
  0
POLYLINE
  8
1
 66
1
  0
VERTEX
  8
1
 10
-27
 20
7.105427357601E-15
  0
VERTEX
  8
1
 10
-19
 20
7.105427357601E-15
  0
VERTEX
  8
1
 10
-19
 20
-7.99999999999999
  0
VERTEX
  8
1
 10
-27
 20
-7.99999999999999
  0
VERTEX
  8
1
 10
-27
 20
7.105427357601E-15
  0
SEQEND
  8
1
  0
CIRCLE
  8
CONNECTIONS
 10
-41
 20
-6
 40
0
  0
CIRCLE
  8
CONNECTIONS
 10
-7
 20
20
 40
0
  0
CIRCLE
  8
CONNECTIONS
 10
8.99999999999998
 20
-6
 40
0
  0
CIRCLE
  8
CONNECTIONS
 10
33
 20
20
 40
0
  0
CIRCLE
  8
CONNECTIONS
 10
-35
 20
-20
 40
0
  0
CIRCLE
  8
CONNECTIONS
 10
-15
 20
-20
 40
0
  0
CIRCLE
  8
CONNECTIONS
 10
3
 20
-20
 40
0
  0
CIRCLE
  8
CONNECTIONS
 10
19
 20
-20
 40
0
  0
CIRCLE
  8
CONNECTIONS
 10
33
 20
-20
 40
0
  0
ENDBLK
  8
0
  0
ENDSEC
  0
SECTION
  2
ENTITIES
  0
INSERT
  8
1
  2
B346_00991561
 10
47
 20
20
  0
ENDSEC
  0
EOF
