  0
SECTION
  2
HEADER
  9
$LIMMIN
 10
0
 20
0
  9
$LIMMAX
 10
52.5
 20
74.25
  9
$EXTMIN
 10
0
 20
60
  9
$EXTMAX
 10
0
 20
34
  0
ENDSEC
  0
SECTION
  2
TABLES
  0
TABLE
  2
LTYPE
 70
9
  0
LTYPE
  2
CONTINUOUS
 70
64
  3
Solid line
 72
65
 73
0
 40
0
  0
LTYPE
  2
DASHED
 70
64
  3
__ __ __ __ __ __ __ __ __
 72
65
 73
2
 40
0.75
 49
0.5
 49
-0.25
  0
LTYPE
  2
DOT
 70
64
  3
...........................
 72
65
 73
2
 40
0.25
 49
0
 49
-0.25
  0
LTYPE
  2
DASHDOT
 70
64
  3
__ . __ . __ . __ . __ . __ . 
 72
65
 73
4
 40
1
 49
0.5
 49
-0.25
 49
0
 49
-0.25
  0
ENDTAB
  0
TABLE
  2
LAYER
 70
10
  0
LAYER
  2
1
 70
0
 62
7
  6
CONTINUOUS
  0
LAYER
  2
CONNECTIONS
 70
0
 62
-7
  6
CONTINUOUS
  0
ENDTAB
  0
ENDSEC
  0
SECTION
  2
BLOCKS
  0
BLOCK
  8
0
  2
TRICON
 70
0
 10
0
 20
0
  0
POLYLINE
  8
1
 70
1
 66
1
 40
0.5
 41
0.5
  0
VERTEX
  8
1
 10
-0.25
 20
0
 42
1
  0
VERTEX
  8
1
 10
0.25
 20
0
 42
1
  0
SEQEND
  8
1
  0
ENDBLK
  8
0
  0
BLOCK
  8
0
  2
TRICONSMALL
 70
0
 10
0
 20
0
  0
POLYLINE
  8
1
 70
1
 66
1
 40
0.25
 41
0.25
  0
VERTEX
  8
1
 10
-0.125
 20
0
 42
1
  0
VERTEX
  8
1
 10
0.125
 20
0
 42
1
  0
SEQEND
  8
1
  0
ENDBLK
  8
0
  0
BLOCK
  8
0
  2
TRICONCIRCLE
 70
0
 10
0
 20
0
  0
CIRCLE
  8
1
 10
0
 20
0
 40
0.5
  0
ENDBLK
  8
0
  0
BLOCK
  8
0
  2
LCBP0
 70
0
 10
0
 20
0
  0
LINE
  8
1
 10
0
 20
-0.46875
 11
0
 21
0.46875
  0
ENDBLK
  8
0
  0
BLOCK
  8
0
  2
LCBP1
 70
0
 10
0
 20
0
  0
LINE
  8
1
 10
0
 20
-0.625
 11
0
 21
0.625
  0
ENDBLK
  8
0
  0
BLOCK
  8
0
  2
LCBP2
 70
0
 10
0
 20
0
  0
LINE
  8
1
 10
0
 20
-0.9375
 11
0
 21
0.9375
  0
ENDBLK
  8
0
  0
BLOCK
  8
0
  2
LCA1
 70
0
 10
0
 20
0
  0
SOLID
  8
1
 62
7 
 10
0
 20
0
 11
-1.4
 21
-0.275
 12
-1.4
 22
0.275
 13
-1.4
 23
0.275
  0
ENDBLK
  8
0
  0
BLOCK
  8
0
  2
LCA2
 70
0
 10
0
 20
0
  0
SOLID
  8
1
 62
7 
 10
0
 20
0
 11
-1.65
 21
-0.525
 12
-1.65
 22
0.525
 13
-1.65
 23
0.525
  0
ENDBLK
  8
0
  0
BLOCK
  8
0
  2
LCA3
 70
0
 10
0
 20
0
  0
SOLID
  8
1
 62
7 
 10
0
 20
0
 11
-2.15
 21
-1.15
 12
-2.15
 22
1.15
 13
-2.15
 23
1.15
  0
ENDBLK
  8
0
  0
BLOCK
  8
0
  2
LCA1R
 70
0
 10
0
 20
0
  0
SOLID
  8
1
 62
7 
 10
0
 20
0
 11
1.4
 21
-0.275
 12
1.4
 22
0.275
 13
1.4
 23
0.275
  0
ENDBLK
  8
0
  0
BLOCK
  8
0
  2
LCA2R
 70
0
 10
0
 20
0
  0
SOLID
  8
1
 62
7 
 10
0
 20
0
 11
1.65
 21
-0.525
 12
1.65
 22
0.525
 13
1.65
 23
0.525
  0
ENDBLK
  8
0
  0
BLOCK
  8
0
  2
LCA3R
 70
0
 10
0
 20
0
  0
SOLID
  8
1
 62
7 
 10
0
 20
0
 11
2.15
 21
-1.15
 12
2.15
 22
1.15
 13
2.15
 23
1.15
  0
ENDBLK
  8
0
  0
BLOCK
  8
0
  2
B4534_00991554
 70
0
 10
0
 20
0
  0
POLYLINE
  8
1
  6
DASHDOT
 66
1
  0
VERTEX
  8
1
 10
-26
 20
17
  0
VERTEX
  8
1
 10
26
 20
17
  0
VERTEX
  8
1
 10
26
 20
-13
  0
VERTEX
  8
1
 10
-26
 20
-13
  0
VERTEX
  8
1
 10
-26
 20
17
  0
SEQEND
  8
1
  0
LINE
  8
1
 10
-4
 20
-17
 11
-4
 21
-13
  0
LINE
  8
1
 10
-26
 20
-7
 11
-30
 21
-7
  0
LINE
  8
1
 10
-30
 20
-3
 11
-26
 21
-3
  0
LINE
  8
1
 10
26
 20
-3
 11
30
 21
-3
  0
TEXT
  8
1
 40
2.475
 41
0.75
  1
1
  7
STANDARD
 72
2
 10
-26.4655974188913
 20
-1.11554957911929
 11
-26.4655974188913
 21
-1.11554957911929
  0
TEXT
  8
1
 40
2.475
 41
0.75
  1
3
  7
STANDARD
 73
2
 10
-29.9345238095238
 20
-10.6190476190476
 11
-29.9345238095238
 21
-10.6190476190476
  0
TEXT
  8
1
 40
2.475
 41
0.75
  1
2
  7
STANDARD
 73
2
 10
27.1584699453552
 20
0.0163934426229773
 11
27.1584699453552
 21
0.0163934426229773
  0
LINE
  8
1
 10
14
 20
-3
 11
26
 21
-3
  0
LINE
  8
1
 10
-4
 20
-13
 11
-4
 21
-8.68434343434344
  0
LINE
  8
1
 10
-22
 20
-7
 11
-26
 21
-7
  0
LINE
  8
1
 10
-26
 20
-3
 11
-22
 21
-3
  0
LINE
  8
1
 10
6
 20
-3
 11
1.6568542494924
 21
-3.02518072666027
  0
LINE
  8
1
 10
-14
 20
-3
 11
-9.65685424949236
 21
-3.02518072666026
  0
POLYLINE
  8
1
 70
1
 66
1
 40
0.5
 41
0.5
  0
VERTEX
  8
1
 10
17.75
 20
-3
 42
1
  0
VERTEX
  8
1
 10
18.25
 20
-3
 42
1
  0
SEQEND
  8
1
  0
LINE
  8
1
 10
18
 20
3
 11
18
 21
-3
  0
LINE
  8
1
 10
19.7677669529664
 20
5.23223304703364
 11
16.2322330470336
 21
8.76776695296637
  0
INSERT
  8
1
  2
LCA1
 10
16.2322330470336
 20
8.76776695296637
 50
135
  0
CIRCLE
  8
1
 10
18
 20
7
 40
4
  0
POLYLINE
  8
1
 66
1
  0
VERTEX
  8
1
 10
-14
 20
7
  0
VERTEX
  8
1
 10
-22
 20
7
  0
VERTEX
  8
1
 10
-22
 20
-1
  0
VERTEX
  8
1
 10
-14
 20
-1
  0
VERTEX
  8
1
 10
-14
 20
7
  0
SEQEND
  8
1
  0
LINE
  8
1
 10
-22
 20
1
 11
-20
 21
1
  0
INSERT
  8
1
  2
LCBP1
 10
-20
 20
1
 50
0
  0
LINE
  8
1
 10
-22
 20
5
 11
-14
 21
5
  0
INSERT
  8
1
  2
LCA1
 10
-14
 20
5
 50
0
  0
LINE
  8
1
 10
-22
 20
-3
 11
-20
 21
-3
  0
INSERT
  8
1
  2
LCBP1
 10
-20
 20
-3
 50
0
  0
POLYLINE
  8
1
 66
1
  0
VERTEX
  8
1
 10
-14
 20
-1
  0
VERTEX
  8
1
 10
-22
 20
-1
  0
VERTEX
  8
1
 10
-22
 20
-9
  0
VERTEX
  8
1
 10
-14
 20
-9
  0
VERTEX
  8
1
 10
-14
 20
-1
  0
SEQEND
  8
1
  0
LINE
  8
1
 10
-14
 20
-3
 11
-22
 21
-7
  0
INSERT
  8
1
  2
LCA1
 10
-22
 20
-7
 50
-153.434948822922
  0
LINE
  8
1
 10
-18
 20
10
 11
-16
 21
10
  0
LINE
  8
1
 10
-21.5
 20
13
 11
-18.5
 21
13
  0
LINE
  8
1
 10
-19
 20
11.25
 11
-19
 21
13
  0
POLYLINE
  8
1
 66
1
  0
VERTEX
  8
1
 10
-19
 20
11.25
  0
VERTEX
  8
1
 10
-19
 20
10.75
  0
VERTEX
  8
1
 10
-20.2990381056767
 20
10
  0
VERTEX
  8
1
 10
-19
 20
9.25
  0
VERTEX
  8
1
 10
-19
 20
8.75
  0
SEQEND
  8
1
  0
LINE
  8
1
 10
-19
 20
7
 11
-19
 21
8.75
  0
LINE
  8
1
 10
-21
 20
7
 11
-21
 21
13
  0
LINE
  8
1
  6
DASHED
 10
-3.99998586649716
 20
-5.18434343434343
 11
-3.99998586649716
 21
2.6293650646413
  0
LINE
  8
1
 10
-5.37868989820657
 20
-5.18433319257722
 11
-4
 21
-6.56302309078379
  0
LINE
  8
1
 10
-4
 20
-6.56302309078379
 11
-2.62135162219
 21
-5.1843747129738
  0
LINE
  8
1
 10
-0.499978063064058
 20
-5.18434343434343
 11
-7.49999366993026
 21
-5.18434343434343
  0
POLYLINE
  8
1
 66
1
  0
VERTEX
  8
1
 10
-4
 20
2.6293650646413
  0
VERTEX
  8
1
 10
-9.65685424949237
 20
-3.02748918485107
  0
VERTEX
  8
1
 10
-4
 20
-8.6843434343435
  0
VERTEX
  8
1
 10
1.6568542494925
 20
-3.02748918485107
  0
VERTEX
  8
1
 10
-4
 20
2.6293650646413
  0
SEQEND
  8
1
  0
LINE
  8
1
 10
3.55740211735771
 20
4.27036371433004
 11
12.4428735786598
 21
6.72971259368521
  0
INSERT
  8
1
  2
LCA1
 10
12.4428735786598
 20
6.72971259368521
 50
15.4711922908485
  0
POLYLINE
  8
1
 66
1
  0
VERTEX
  8
1
 10
8.00011108809962
 20
3.0000231433541
  0
VERTEX
  8
1
 10
10.0001110880996
 20
3.4166898100208
  0
VERTEX
  8
1
 10
6.00011108809962
 20
4.2500231433541
  0
VERTEX
  8
1
 10
10.0001110880996
 20
5.08335647668745
  0
VERTEX
  8
1
 10
6.00011108809962
 20
5.9166898100208
  0
VERTEX
  8
1
 10
10.0001110880996
 20
6.7500231433541
  0
VERTEX
  8
1
 10
6.00011108809962
 20
7.5833564766874
  0
VERTEX
  8
1
 10
8.00011108809962
 20
8.0000231433541
  0
SEQEND
  8
1
  0
POLYLINE
  8
1
 66
1
  0
VERTEX
  8
1
 10
6
 20
2
  0
VERTEX
  8
1
 10
4
 20
1
  0
VERTEX
  8
1
 10
6
 20
0
  0
SEQEND
  8
1
  0
POLYLINE
  8
1
  6
DOT
 66
1
  0
VERTEX
  8
1
 10
8
 20
-5
  0
VERTEX
  8
1
 10
8
 20
-9
  0
VERTEX
  8
1
 10
16
 20
-9
  0
VERTEX
  8
1
 10
16
 20
-5
  0
VERTEX
  8
1
 10
14
 20
-3
  0
SEQEND
  8
1
  0
POLYLINE
  8
1
 66
1
  0
VERTEX
  8
1
 10
6
 20
-5
  0
VERTEX
  8
1
 10
14
 20
-5
  0
VERTEX
  8
1
 10
14
 20
3
  0
VERTEX
  8
1
 10
6
 20
3
  0
VERTEX
  8
1
 10
6
 20
-5
  0
SEQEND
  8
1
  0
LINE
  8
1
 10
14
 20
-3
 11
6
 21
-3
  0
INSERT
  8
1
  2
LCA1
 10
6
 20
-3
 50
-180
  0
INSERT
  8
1
  2
LCA1R
 10
14
 20
-3
 50
-180
  0
CIRCLE
  8
CONNECTIONS
 10
-30
 20
-3
 40
0
  0
CIRCLE
  8
CONNECTIONS
 10
-30
 20
-7
 40
0
  0
CIRCLE
  8
CONNECTIONS
 10
30
 20
-3
 40
0
  0
ENDBLK
  8
0
  0
ENDSEC
  0
SECTION
  2
ENTITIES
  0
INSERT
  8
1
  2
B4534_00991554
 10
30
 20
17
  0
ENDSEC
  0
EOF
