  0
SECTION
  2
HEADER
  9
$LIMMIN
 10
0
 20
0
  9
$LIMMAX
 10
52.5
 20
74.25
  9
$EXTMIN
 10
0
 20
56
  9
$EXTMAX
 10
0
 20
28
  0
ENDSEC
  0
SECTION
  2
TABLES
  0
TABLE
  2
LTYPE
 70
9
  0
LTYPE
  2
CONTINUOUS
 70
64
  3
Solid line
 72
65
 73
0
 40
0
  0
LTYPE
  2
DASHED
 70
64
  3
__ __ __ __ __ __ __ __ __
 72
65
 73
2
 40
0.75
 49
0.5
 49
-0.25
  0
LTYPE
  2
DOT
 70
64
  3
...........................
 72
65
 73
2
 40
0.25
 49
0
 49
-0.25
  0
LTYPE
  2
DASHDOT
 70
64
  3
__ . __ . __ . __ . __ . __ . 
 72
65
 73
4
 40
1
 49
0.5
 49
-0.25
 49
0
 49
-0.25
  0
ENDTAB
  0
TABLE
  2
LAYER
 70
10
  0
LAYER
  2
1
 70
0
 62
7
  6
CONTINUOUS
  0
LAYER
  2
CONNECTIONS
 70
0
 62
-7
  6
CONTINUOUS
  0
ENDTAB
  0
ENDSEC
  0
SECTION
  2
BLOCKS
  0
BLOCK
  8
0
  2
TRICON
 70
0
 10
0
 20
0
  0
POLYLINE
  8
1
 70
1
 66
1
 40
0.5
 41
0.5
  0
VERTEX
  8
1
 10
-0.25
 20
0
 42
1
  0
VERTEX
  8
1
 10
0.25
 20
0
 42
1
  0
SEQEND
  8
1
  0
ENDBLK
  8
0
  0
BLOCK
  8
0
  2
TRICONSMALL
 70
0
 10
0
 20
0
  0
POLYLINE
  8
1
 70
1
 66
1
 40
0.25
 41
0.25
  0
VERTEX
  8
1
 10
-0.125
 20
0
 42
1
  0
VERTEX
  8
1
 10
0.125
 20
0
 42
1
  0
SEQEND
  8
1
  0
ENDBLK
  8
0
  0
BLOCK
  8
0
  2
TRICONCIRCLE
 70
0
 10
0
 20
0
  0
CIRCLE
  8
1
 10
0
 20
0
 40
0.5
  0
ENDBLK
  8
0
  0
BLOCK
  8
0
  2
LCBP0
 70
0
 10
0
 20
0
  0
LINE
  8
1
 10
0
 20
-0.46875
 11
0
 21
0.46875
  0
ENDBLK
  8
0
  0
BLOCK
  8
0
  2
LCBP1
 70
0
 10
0
 20
0
  0
LINE
  8
1
 10
0
 20
-0.625
 11
0
 21
0.625
  0
ENDBLK
  8
0
  0
BLOCK
  8
0
  2
LCBP2
 70
0
 10
0
 20
0
  0
LINE
  8
1
 10
0
 20
-0.9375
 11
0
 21
0.9375
  0
ENDBLK
  8
0
  0
BLOCK
  8
0
  2
LCA1
 70
0
 10
0
 20
0
  0
SOLID
  8
1
 62
7 
 10
0
 20
0
 11
-1.4
 21
-0.275
 12
-1.4
 22
0.275
 13
-1.4
 23
0.275
  0
ENDBLK
  8
0
  0
BLOCK
  8
0
  2
LCA2
 70
0
 10
0
 20
0
  0
SOLID
  8
1
 62
7 
 10
0
 20
0
 11
-1.65
 21
-0.525
 12
-1.65
 22
0.525
 13
-1.65
 23
0.525
  0
ENDBLK
  8
0
  0
BLOCK
  8
0
  2
LCA3
 70
0
 10
0
 20
0
  0
SOLID
  8
1
 62
7 
 10
0
 20
0
 11
-2.15
 21
-1.15
 12
-2.15
 22
1.15
 13
-2.15
 23
1.15
  0
ENDBLK
  8
0
  0
BLOCK
  8
0
  2
LCA1R
 70
0
 10
0
 20
0
  0
SOLID
  8
1
 62
7 
 10
0
 20
0
 11
1.4
 21
-0.275
 12
1.4
 22
0.275
 13
1.4
 23
0.275
  0
ENDBLK
  8
0
  0
BLOCK
  8
0
  2
LCA2R
 70
0
 10
0
 20
0
  0
SOLID
  8
1
 62
7 
 10
0
 20
0
 11
1.65
 21
-0.525
 12
1.65
 22
0.525
 13
1.65
 23
0.525
  0
ENDBLK
  8
0
  0
BLOCK
  8
0
  2
LCA3R
 70
0
 10
0
 20
0
  0
SOLID
  8
1
 62
7 
 10
0
 20
0
 11
2.15
 21
-1.15
 12
2.15
 22
1.15
 13
2.15
 23
1.15
  0
ENDBLK
  8
0
  0
BLOCK
  8
0
  2
B4290_00991546
 70
0
 10
0
 20
0
  0
POLYLINE
  8
1
  6
DASHDOT
 66
1
  0
VERTEX
  8
1
 10
-24
 20
14
  0
VERTEX
  8
1
 10
24
 20
14
  0
VERTEX
  8
1
 10
24
 20
-10
  0
VERTEX
  8
1
 10
-24
 20
-10
  0
VERTEX
  8
1
 10
-24
 20
14
  0
SEQEND
  8
1
  0
LINE
  8
1
 10
28
 20
0
 11
24
 21
0
  0
LINE
  8
1
 10
-14
 20
-10
 11
-14
 21
-14
  0
LINE
  8
1
 10
-28
 20
0
 11
-24
 21
0
  0
TEXT
  8
1
 40
2.475
 41
0.75
  1
1
  7
STANDARD
 72
2
 10
-24.4655974188913
 20
1.88445042088071
 11
-24.4655974188913
 21
1.88445042088071
  0
TEXT
  8
1
 40
2.475
 41
0.75
  1
2
  7
STANDARD
 73
2
 10
25.1584699453552
 20
3.01639344262298
 11
25.1584699453552
 21
3.01639344262298
  0
LINE
  8
1
 10
-8.3431457505076
 20
-0.0251807266602799
 11
-3.99992700409988
 21
-0.0251807266602799
  0
LINE
  8
1
 10
4
 20
0
 11
8.34956801660508
 21
0
  0
LINE
  8
1
 10
24
 20
0
 11
19.6337765806252
 21
0
  0
LINE
  8
1
 10
-14
 20
-5.68203497615264
 11
-14
 21
-10
  0
LINE
  8
1
 10
-24
 20
0
 11
-19.6485902072146
 21
0
  0
LINE
  8
1
 10
14.0063897763578
 20
2.35995740149095
 11
14.0063897763578
 21
5.67366590047569
  0
POLYLINE
  8
1
 66
1
  0
VERTEX
  8
1
 10
14.0063897763578
 20
5.67366590047568
  0
VERTEX
  8
1
 10
8.3495355268655
 20
0.0168116509832998
  0
VERTEX
  8
1
 10
14.0063897763578
 20
-5.64004259850908
  0
VERTEX
  8
1
 10
19.6632440258503
 20
0.0168116509832998
  0
VERTEX
  8
1
 10
14.0063897763578
 20
5.67366590047568
  0
SEQEND
  8
1
  0
POLYLINE
  8
1
 66
1
  0
VERTEX
  8
1
 10
-14
 20
5.6316735228321
  0
VERTEX
  8
1
 10
-19.6568542494924
 20
-0.0251807266602739
  0
VERTEX
  8
1
 10
-14
 20
-5.68203497615263
  0
VERTEX
  8
1
 10
-8.3431457505076
 20
-0.0251807266602739
  0
VERTEX
  8
1
 10
-14
 20
5.6316735228321
  0
SEQEND
  8
1
  0
POLYLINE
  8
1
 66
1
  0
VERTEX
  8
1
 10
-14
 20
5.6316735228321
  0
VERTEX
  8
1
 10
-19.6568542494924
 20
-0.0251807266602739
  0
VERTEX
  8
1
 10
-14
 20
-5.68203497615263
  0
VERTEX
  8
1
 10
-8.3431457505076
 20
-0.0251807266602739
  0
VERTEX
  8
1
 10
-14
 20
5.6316735228321
  0
SEQEND
  8
1
  0
LINE
  8
1
 10
-15.3786898982066
 20
-2.18202473438642
 11
-14
 21
-3.56071463259298
  0
LINE
  8
1
 10
-14
 20
-3.56071463259298
 11
-12.62135162219
 21
-2.182066254783
  0
LINE
  8
1
 10
-10.4999780630641
 20
-2.18203497615263
 11
-17.4999936699303
 21
-2.18203497615263
  0
LINE
  8
1
  6
DASHED
 10
-13.9999858664972
 20
-2.18203497615263
 11
-13.9999858664972
 21
5.63167352283209
  0
LINE
  8
1
 10
-6.44259788264229
 20
7.27036371433004
 11
2.44287357865983
 21
9.72971259368521
  0
INSERT
  8
1
  2
LCA1
 10
2.44287357865983
 20
9.72971259368521
 50
15.4711922908485
  0
POLYLINE
  8
1
 66
1
  0
VERTEX
  8
1
 10
-1.99988891190038
 20
6.0000231433541
  0
VERTEX
  8
1
 10
0.000111088099625789
 20
6.4166898100208
  0
VERTEX
  8
1
 10
-3.99988891190038
 20
7.2500231433541
  0
VERTEX
  8
1
 10
0.000111088099625789
 20
8.08335647668745
  0
VERTEX
  8
1
 10
-3.99988891190038
 20
8.9166898100208
  0
VERTEX
  8
1
 10
0.000111088099625789
 20
9.7500231433541
  0
VERTEX
  8
1
 10
-3.99988891190038
 20
10.5833564766874
  0
VERTEX
  8
1
 10
-1.99988891190038
 20
11.0000231433541
  0
SEQEND
  8
1
  0
POLYLINE
  8
1
 66
1
  0
VERTEX
  8
1
 10
-4
 20
5
  0
VERTEX
  8
1
 10
-6
 20
4
  0
VERTEX
  8
1
 10
-4
 20
3
  0
SEQEND
  8
1
  0
POLYLINE
  8
1
  6
DOT
 66
1
  0
VERTEX
  8
1
 10
-2
 20
-2
  0
VERTEX
  8
1
 10
-2
 20
-6
  0
VERTEX
  8
1
 10
6
 20
-6
  0
VERTEX
  8
1
 10
6
 20
-2
  0
VERTEX
  8
1
 10
4
 20
0
  0
SEQEND
  8
1
  0
POLYLINE
  8
1
 66
1
  0
VERTEX
  8
1
 10
-4
 20
-2
  0
VERTEX
  8
1
 10
4
 20
-2
  0
VERTEX
  8
1
 10
4
 20
6
  0
VERTEX
  8
1
 10
-4
 20
6
  0
VERTEX
  8
1
 10
-4
 20
-2
  0
SEQEND
  8
1
  0
LINE
  8
1
 10
4
 20
0
 11
-4
 21
0
  0
INSERT
  8
1
  2
LCA1
 10
-4
 20
0
 50
-180
  0
INSERT
  8
1
  2
LCA1R
 10
4
 20
0
 50
-180
  0
CIRCLE
  8
CONNECTIONS
 10
28
 20
0
 40
0
  0
CIRCLE
  8
CONNECTIONS
 10
-28
 20
0
 40
0
  0
ENDBLK
  8
0
  0
ENDSEC
  0
SECTION
  2
ENTITIES
  0
INSERT
  8
1
  2
B4290_00991546
 10
28
 20
14
  0
ENDSEC
  0
EOF
