  0
SECTION
  2
HEADER
  9
$LIMMIN
 10
0
 20
0
  9
$LIMMAX
 10
52.5
 20
74.25
  9
$EXTMIN
 10
0
 20
19.3137084989848
  9
$EXTMAX
 10
0
 20
21.3568542494924
  0
ENDSEC
  0
SECTION
  2
TABLES
  0
TABLE
  2
LTYPE
 70
9
  0
LTYPE
  2
CONTINUOUS
 70
64
  3
Solid line
 72
65
 73
0
 40
0
  0
LTYPE
  2
DASHED
 70
64
  3
__ __ __ __ __ __ __ __ __
 72
65
 73
2
 40
0.75
 49
0.5
 49
-0.25
  0
LTYPE
  2
DOT
 70
64
  3
...........................
 72
65
 73
2
 40
0.25
 49
0
 49
-0.25
  0
LTYPE
  2
DASHDOT
 70
64
  3
__ . __ . __ . __ . __ . __ . 
 72
65
 73
4
 40
1
 49
0.5
 49
-0.25
 49
0
 49
-0.25
  0
ENDTAB
  0
TABLE
  2
LAYER
 70
10
  0
LAYER
  2
1
 70
0
 62
7
  6
CONTINUOUS
  0
LAYER
  2
CONNECTIONS
 70
0
 62
-7
  6
CONTINUOUS
  0
ENDTAB
  0
ENDSEC
  0
SECTION
  2
BLOCKS
  0
BLOCK
  8
0
  2
TRICON
 70
0
 10
0
 20
0
  0
POLYLINE
  8
1
 70
1
 66
1
 40
0.5
 41
0.5
  0
VERTEX
  8
1
 10
-0.25
 20
0
 42
1
  0
VERTEX
  8
1
 10
0.25
 20
0
 42
1
  0
SEQEND
  8
1
  0
ENDBLK
  8
0
  0
BLOCK
  8
0
  2
TRICONSMALL
 70
0
 10
0
 20
0
  0
POLYLINE
  8
1
 70
1
 66
1
 40
0.25
 41
0.25
  0
VERTEX
  8
1
 10
-0.125
 20
0
 42
1
  0
VERTEX
  8
1
 10
0.125
 20
0
 42
1
  0
SEQEND
  8
1
  0
ENDBLK
  8
0
  0
BLOCK
  8
0
  2
TRICONCIRCLE
 70
0
 10
0
 20
0
  0
CIRCLE
  8
1
 10
0
 20
0
 40
0.5
  0
ENDBLK
  8
0
  0
BLOCK
  8
0
  2
LCBP0
 70
0
 10
0
 20
0
  0
LINE
  8
1
 10
0
 20
-0.46875
 11
0
 21
0.46875
  0
ENDBLK
  8
0
  0
BLOCK
  8
0
  2
LCBP1
 70
0
 10
0
 20
0
  0
LINE
  8
1
 10
0
 20
-0.625
 11
0
 21
0.625
  0
ENDBLK
  8
0
  0
BLOCK
  8
0
  2
LCBP2
 70
0
 10
0
 20
0
  0
LINE
  8
1
 10
0
 20
-0.9375
 11
0
 21
0.9375
  0
ENDBLK
  8
0
  0
BLOCK
  8
0
  2
LCA1
 70
0
 10
0
 20
0
  0
SOLID
  8
1
 62
7 
 10
0
 20
0
 11
-1.4
 21
-0.275
 12
-1.4
 22
0.275
 13
-1.4
 23
0.275
  0
ENDBLK
  8
0
  0
BLOCK
  8
0
  2
LCA2
 70
0
 10
0
 20
0
  0
SOLID
  8
1
 62
7 
 10
0
 20
0
 11
-1.65
 21
-0.525
 12
-1.65
 22
0.525
 13
-1.65
 23
0.525
  0
ENDBLK
  8
0
  0
BLOCK
  8
0
  2
LCA3
 70
0
 10
0
 20
0
  0
SOLID
  8
1
 62
7 
 10
0
 20
0
 11
-2.15
 21
-1.15
 12
-2.15
 22
1.15
 13
-2.15
 23
1.15
  0
ENDBLK
  8
0
  0
BLOCK
  8
0
  2
LCA1R
 70
0
 10
0
 20
0
  0
SOLID
  8
1
 62
7 
 10
0
 20
0
 11
1.4
 21
-0.275
 12
1.4
 22
0.275
 13
1.4
 23
0.275
  0
ENDBLK
  8
0
  0
BLOCK
  8
0
  2
LCA2R
 70
0
 10
0
 20
0
  0
SOLID
  8
1
 62
7 
 10
0
 20
0
 11
1.65
 21
-0.525
 12
1.65
 22
0.525
 13
1.65
 23
0.525
  0
ENDBLK
  8
0
  0
BLOCK
  8
0
  2
LCA3R
 70
0
 10
0
 20
0
  0
SOLID
  8
1
 62
7 
 10
0
 20
0
 11
2.15
 21
-1.15
 12
2.15
 22
1.15
 13
2.15
 23
1.15
  0
ENDBLK
  8
0
  0
BLOCK
  8
0
  2
B2226_00991544
 70
0
 10
0
 20
0
  0
LINE
  8
1
 10
5.65685424949239
 20
-1.02157287525381
 11
9.65685424949239
 21
-1.02157287525381
  0
LINE
  8
1
 10
-5.65685424949239
 20
-1.02157287525381
 11
-9.65685424949239
 21
-1.02157287525381
  0
LINE
  8
1
 10
1.38248557872779
 20
6.61776695296637
 11
3.50380592228743
 21
8.73908729652601
  0
LINE
  8
1
 10
1.38248557872779
 20
8.73908729652601
 11
3.50380592228743
 21
6.61776695296637
  0
CIRCLE
  8
1
 10
2.44314575050761
 20
7.67842712474619
 40
1.5
  0
LINE
  8
1
 10
-0.789087296526025
 20
5.91066017177982
 11
-4.32462120245876
 21
9.44619407771256
  0
INSERT
  8
1
  2
LCA1
 10
-4.32462120245876
 20
9.44619407771256
 50
135
  0
POLYLINE
  8
1
 66
1
  0
VERTEX
  8
1
 10
-5.05685424949239
 20
10.6784271247462
  0
VERTEX
  8
1
 10
4.94314575050761
 20
10.6784271247462
  0
VERTEX
  8
1
 10
4.94314575050761
 20
4.67842712474619
  0
VERTEX
  8
1
 10
-5.05685424949239
 20
4.67842712474619
  0
VERTEX
  8
1
 10
-5.05685424949239
 20
10.6784271247462
  0
SEQEND
  8
1
  0
LINE
  8
1
  6
DASHED
 10
1.41335028350416E-05
 20
-3.17842712474619
 11
1.41335028350416E-05
 21
4.63528137423853
  0
LINE
  8
1
 10
-1.37868989820657
 20
-3.17841688297999
 11
0
 21
-4.55710678118655
  0
LINE
  8
1
 10
0
 20
-4.55710678118655
 11
1.37864837781
 21
-3.17845840337656
  0
LINE
  8
1
 10
3.50002193693594
 20
-3.17842712474619
 11
-3.49999366993025
 21
-3.17842712474619
  0
POLYLINE
  8
1
 66
1
  0
VERTEX
  8
1
 10
-1.30266168222685E-14
 20
4.63528137423854
  0
VERTEX
  8
1
 10
-5.65685424949239
 20
-1.02157287525382
  0
VERTEX
  8
1
 10
-1.30266168222685E-14
 20
-6.67842712474619
  0
VERTEX
  8
1
 10
5.65685424949239
 20
-1.02157287525382
  0
VERTEX
  8
1
 10
-1.30266168222685E-14
 20
4.63528137423854
  0
SEQEND
  8
1
  0
LINE
  8
1
 10
0
 20
-6.67842712474619
 11
0
 21
-10.6784271247462
  0
CIRCLE
  8
CONNECTIONS
 10
-9.65685424949239
 20
-1.02157287525381
 40
0
  0
CIRCLE
  8
CONNECTIONS
 10
9.65685424949239
 20
-1.02157287525381
 40
0
  0
ENDBLK
  8
0
  0
ENDSEC
  0
SECTION
  2
ENTITIES
  0
INSERT
  8
1
  2
B2226_00991544
 10
9.65685424949239
 20
10.6784271247462
  0
ENDSEC
  0
EOF
