  0
SECTION
  2
HEADER
  9
$LIMMIN
 10
0
 20
0
  9
$LIMMAX
 10
52.5
 20
74.25
  9
$EXTMIN
 10
0
 20
176.142853117041
  9
$EXTMAX
 10
0
 20
16
  0
ENDSEC
  0
SECTION
  2
TABLES
  0
TABLE
  2
LTYPE
 70
9
  0
LTYPE
  2
CONTINUOUS
 70
64
  3
Solid line
 72
65
 73
0
 40
0
  0
LTYPE
  2
DASHED
 70
64
  3
__ __ __ __ __ __ __ __ __
 72
65
 73
2
 40
0.75
 49
0.5
 49
-0.25
  0
LTYPE
  2
DOT
 70
64
  3
...........................
 72
65
 73
2
 40
0.25
 49
0
 49
-0.25
  0
LTYPE
  2
DASHDOT
 70
64
  3
__ . __ . __ . __ . __ . __ . 
 72
65
 73
4
 40
1
 49
0.5
 49
-0.25
 49
0
 49
-0.25
  0
ENDTAB
  0
TABLE
  2
LAYER
 70
10
  0
LAYER
  2
1
 70
0
 62
7
  6
CONTINUOUS
  0
LAYER
  2
CONNECTIONS
 70
0
 62
-7
  6
CONTINUOUS
  0
ENDTAB
  0
ENDSEC
  0
SECTION
  2
BLOCKS
  0
BLOCK
  8
0
  2
TRICON
 70
0
 10
0
 20
0
  0
POLYLINE
  8
1
 70
1
 66
1
 40
0.5
 41
0.5
  0
VERTEX
  8
1
 10
-0.25
 20
0
 42
1
  0
VERTEX
  8
1
 10
0.25
 20
0
 42
1
  0
SEQEND
  8
1
  0
ENDBLK
  8
0
  0
BLOCK
  8
0
  2
TRICONSMALL
 70
0
 10
0
 20
0
  0
POLYLINE
  8
1
 70
1
 66
1
 40
0.25
 41
0.25
  0
VERTEX
  8
1
 10
-0.125
 20
0
 42
1
  0
VERTEX
  8
1
 10
0.125
 20
0
 42
1
  0
SEQEND
  8
1
  0
ENDBLK
  8
0
  0
BLOCK
  8
0
  2
TRICONCIRCLE
 70
0
 10
0
 20
0
  0
CIRCLE
  8
1
 10
0
 20
0
 40
0.5
  0
ENDBLK
  8
0
  0
BLOCK
  8
0
  2
LCBP0
 70
0
 10
0
 20
0
  0
LINE
  8
1
 10
0
 20
-0.46875
 11
0
 21
0.46875
  0
ENDBLK
  8
0
  0
BLOCK
  8
0
  2
LCBP1
 70
0
 10
0
 20
0
  0
LINE
  8
1
 10
0
 20
-0.625
 11
0
 21
0.625
  0
ENDBLK
  8
0
  0
BLOCK
  8
0
  2
LCBP2
 70
0
 10
0
 20
0
  0
LINE
  8
1
 10
0
 20
-0.9375
 11
0
 21
0.9375
  0
ENDBLK
  8
0
  0
BLOCK
  8
0
  2
LCA1
 70
0
 10
0
 20
0
  0
SOLID
  8
1
 62
7 
 10
0
 20
0
 11
-1.4
 21
-0.275
 12
-1.4
 22
0.275
 13
-1.4
 23
0.275
  0
ENDBLK
  8
0
  0
BLOCK
  8
0
  2
LCA2
 70
0
 10
0
 20
0
  0
SOLID
  8
1
 62
7 
 10
0
 20
0
 11
-1.65
 21
-0.525
 12
-1.65
 22
0.525
 13
-1.65
 23
0.525
  0
ENDBLK
  8
0
  0
BLOCK
  8
0
  2
LCA3
 70
0
 10
0
 20
0
  0
SOLID
  8
1
 62
7 
 10
0
 20
0
 11
-2.15
 21
-1.15
 12
-2.15
 22
1.15
 13
-2.15
 23
1.15
  0
ENDBLK
  8
0
  0
BLOCK
  8
0
  2
LCA1R
 70
0
 10
0
 20
0
  0
SOLID
  8
1
 62
7 
 10
0
 20
0
 11
1.4
 21
-0.275
 12
1.4
 22
0.275
 13
1.4
 23
0.275
  0
ENDBLK
  8
0
  0
BLOCK
  8
0
  2
LCA2R
 70
0
 10
0
 20
0
  0
SOLID
  8
1
 62
7 
 10
0
 20
0
 11
1.65
 21
-0.525
 12
1.65
 22
0.525
 13
1.65
 23
0.525
  0
ENDBLK
  8
0
  0
BLOCK
  8
0
  2
LCA3R
 70
0
 10
0
 20
0
  0
SOLID
  8
1
 62
7 
 10
0
 20
0
 11
2.15
 21
-1.15
 12
2.15
 22
1.15
 13
2.15
 23
1.15
  0
ENDBLK
  8
0
  0
BLOCK
  8
0
  2
B202859_00991542
 70
0
 10
0
 20
0
  0
POLYLINE
  8
1
 66
1
  0
VERTEX
  8
1
 10
-79.9285675050551
 20
4
  0
VERTEX
  8
1
 10
-51.9285675050551
 20
4
  0
VERTEX
  8
1
 10
-51.9285675050551
 20
-4
  0
VERTEX
  8
1
 10
-79.9285675050551
 20
-4
  0
VERTEX
  8
1
 10
-79.9285675050551
 20
4
  0
SEQEND
  8
1
  0
POLYLINE
  8
1
 66
1
  0
VERTEX
  8
1
 10
60.0714265585203
 20
4
  0
VERTEX
  8
1
 10
88.0714265585203
 20
4
  0
VERTEX
  8
1
 10
88.0714265585203
 20
-4
  0
VERTEX
  8
1
 10
60.0714265585203
 20
-4
  0
VERTEX
  8
1
 10
60.0714265585203
 20
4
  0
SEQEND
  8
1
  0
POLYLINE
  8
1
 66
1
  0
VERTEX
  8
1
 10
32.0714265585203
 20
4
  0
VERTEX
  8
1
 10
60.0714265585203
 20
4
  0
VERTEX
  8
1
 10
60.0714265585203
 20
-4
  0
VERTEX
  8
1
 10
32.0714265585203
 20
-4
  0
VERTEX
  8
1
 10
32.0714265585203
 20
4
  0
SEQEND
  8
1
  0
POLYLINE
  8
1
 66
1
  0
VERTEX
  8
1
 10
4.07142655852034
 20
4
  0
VERTEX
  8
1
 10
32.0714265585203
 20
4
  0
VERTEX
  8
1
 10
32.0714265585203
 20
-4
  0
VERTEX
  8
1
 10
4.07142655852034
 20
-4
  0
VERTEX
  8
1
 10
4.07142655852034
 20
4
  0
SEQEND
  8
1
  0
POLYLINE
  8
1
 66
1
  0
VERTEX
  8
1
 10
-23.9285734414796
 20
4
  0
VERTEX
  8
1
 10
4.07142655852035
 20
4
  0
VERTEX
  8
1
 10
4.07142655852035
 20
-4
  0
VERTEX
  8
1
 10
-23.9285734414796
 20
-4
  0
VERTEX
  8
1
 10
-23.9285734414796
 20
4
  0
SEQEND
  8
1
  0
POLYLINE
  8
1
 66
1
  0
VERTEX
  8
1
 10
-51.9285734414796
 20
4
  0
VERTEX
  8
1
 10
-23.9285734414796
 20
4
  0
VERTEX
  8
1
 10
-23.9285734414796
 20
-4
  0
VERTEX
  8
1
 10
-51.9285734414796
 20
-4
  0
VERTEX
  8
1
 10
-51.9285734414796
 20
4
  0
SEQEND
  8
1
  0
TEXT
  8
1
 40
2.475
 41
0.75
  1
A5
  7
STANDARD
 72
2
 73
2
 10
87.0714324949449
 20
11
 11
87.0714324949449
 21
11
  0
TEXT
  8
1
 40
2.475
 41
0.75
  1
A3
  7
STANDARD
 72
2
 73
2
 10
76.8714324949449
 20
11
 11
76.8714324949449
 21
11
  0
TEXT
  8
1
 40
2.475
 41
0.75
  1
A2
  7
STANDARD
 72
2
 73
2
 10
71.3714324949449
 20
11
 11
71.3714324949449
 21
11
  0
TEXT
  8
1
 40
2.475
 41
0.75
  1
A4
  7
STANDARD
 72
2
 73
2
 10
81.7714324949449
 20
11
 11
81.7714324949449
 21
11
  0
TEXT
  8
1
 40
2.475
 41
0.75
  1
A6
  7
STANDARD
 73
2
 10
87.3888219831651
 20
7
 11
87.3888219831651
 21
7
  0
TEXT
  8
1
 40
2.475
 41
0.75
  1
A1
  7
STANDARD
 72
2
 73
2
 10
65.0714324949449
 20
7
 11
65.0714324949449
 21
7
  0
TEXT
  8
1
 40
2.475
 41
0.75
  1
P
  7
STANDARD
 73
2
 10
71.0714324949449
 20
-8
 11
71.0714324949449
 21
-8
  0
TEXT
  8
1
 40
2.475
 41
0.75
  1
R
  7
STANDARD
 72
2
 73
2
 10
61.0714324949449
 20
-8
 11
61.0714324949449
 21
-8
  0
LINE
  8
1
 10
62.0714324949449
 20
-4
 11
62.0714324949449
 21
-8
  0
LINE
  8
1
 10
70.0714324949449
 20
-4
 11
70.0714324949449
 21
-8
  0
LINE
  8
1
 10
66.0714324949449
 20
8
 11
66.0714324949449
 21
4
  0
LINE
  8
1
 10
70.0714324949449
 20
8
 11
70.0714324949449
 21
4
  0
LINE
  8
1
 10
74.0714324949449
 20
8
 11
74.0714324949449
 21
4
  0
LINE
  8
1
 10
78.0714324949449
 20
8
 11
78.0714324949449
 21
4
  0
LINE
  8
1
 10
82.0714324949449
 20
8
 11
82.0714324949449
 21
4
  0
LINE
  8
1
 10
86.0714324949449
 20
8
 11
86.0714324949449
 21
4
  0
POLYLINE
  8
1
 70
1
 66
1
 40
0.5
 41
0.5
  0
VERTEX
  8
1
 10
65.8214324949449
 20
0
 42
1
  0
VERTEX
  8
1
 10
66.3214324949449
 20
0
 42
1
  0
SEQEND
  8
1
  0
POLYLINE
  8
1
 70
1
 66
1
 40
0.5
 41
0.5
  0
VERTEX
  8
1
 10
69.8214324949449
 20
0
 42
1
  0
VERTEX
  8
1
 10
70.3214324949449
 20
0
 42
1
  0
SEQEND
  8
1
  0
POLYLINE
  8
1
 70
1
 66
1
 40
0.5
 41
0.5
  0
VERTEX
  8
1
 10
77.8214324949449
 20
0
 42
1
  0
VERTEX
  8
1
 10
78.3214324949449
 20
0
 42
1
  0
SEQEND
  8
1
  0
POLYLINE
  8
1
 70
1
 66
1
 40
0.5
 41
0.5
  0
VERTEX
  8
1
 10
73.8214324949449
 20
0
 42
1
  0
VERTEX
  8
1
 10
74.3214324949449
 20
0
 42
1
  0
SEQEND
  8
1
  0
LINE
  8
1
 10
78.0714324949449
 20
4
 11
78.0714324949449
 21
0
  0
LINE
  8
1
 10
74.0714324949449
 20
4
 11
74.0714324949449
 21
0
  0
LINE
  8
1
 10
70.0714324949449
 20
4
 11
70.0714324949449
 21
0
  0
LINE
  8
1
 10
66.0714324949449
 20
4
 11
66.0714324949449
 21
0
  0
POLYLINE
  8
1
 66
1
  0
VERTEX
  8
1
 10
82.0714324949449
 20
4
  0
VERTEX
  8
1
 10
82.0714324949449
 20
0
  0
VERTEX
  8
1
 10
62.0714324949449
 20
0
  0
VERTEX
  8
1
 10
62.0714324949449
 20
-4
  0
SEQEND
  8
1
  0
INSERT
  8
1
  2
LCA1
 10
62.0714324949449
 20
-4
 50
-90
  0
POLYLINE
  8
1
 66
1
  0
VERTEX
  8
1
 10
70.0714324949449
 20
-4
  0
VERTEX
  8
1
 10
70.0714324949449
 20
-2
  0
VERTEX
  8
1
 10
86.0714324949449
 20
-2
  0
VERTEX
  8
1
 10
86.0714324949449
 20
4
  0
SEQEND
  8
1
  0
INSERT
  8
1
  2
LCA1
 10
86.0714324949449
 20
4
 50
90
  0
POLYLINE
  8
1
 70
1
 66
1
 40
0.5
 41
0.5
  0
VERTEX
  8
1
 10
37.8214324949449
 20
0
 42
1
  0
VERTEX
  8
1
 10
38.3214324949449
 20
0
 42
1
  0
SEQEND
  8
1
  0
POLYLINE
  8
1
 70
1
 66
1
 40
0.5
 41
0.5
  0
VERTEX
  8
1
 10
41.8214324949449
 20
0
 42
1
  0
VERTEX
  8
1
 10
42.3214324949449
 20
0
 42
1
  0
SEQEND
  8
1
  0
POLYLINE
  8
1
 70
1
 66
1
 40
0.5
 41
0.5
  0
VERTEX
  8
1
 10
49.8214324949449
 20
0
 42
1
  0
VERTEX
  8
1
 10
50.3214324949449
 20
0
 42
1
  0
SEQEND
  8
1
  0
POLYLINE
  8
1
 70
1
 66
1
 40
0.5
 41
0.5
  0
VERTEX
  8
1
 10
45.8214324949449
 20
0
 42
1
  0
VERTEX
  8
1
 10
46.3214324949449
 20
0
 42
1
  0
SEQEND
  8
1
  0
LINE
  8
1
 10
50.0714324949449
 20
4
 11
50.0714324949449
 21
0
  0
LINE
  8
1
 10
46.0714324949449
 20
4
 11
46.0714324949449
 21
0
  0
LINE
  8
1
 10
42.0714324949449
 20
4
 11
42.0714324949449
 21
0
  0
LINE
  8
1
 10
38.0714324949449
 20
4
 11
38.0714324949449
 21
0
  0
POLYLINE
  8
1
 66
1
  0
VERTEX
  8
1
 10
58.0714324949449
 20
4
  0
VERTEX
  8
1
 10
58.0714324949449
 20
0
  0
VERTEX
  8
1
 10
34.0714324949449
 20
0
  0
VERTEX
  8
1
 10
34.0714324949449
 20
-4
  0
SEQEND
  8
1
  0
INSERT
  8
1
  2
LCA1
 10
34.0714324949449
 20
-4
 50
-90
  0
POLYLINE
  8
1
 66
1
  0
VERTEX
  8
1
 10
42.0714324949449
 20
-4
  0
VERTEX
  8
1
 10
42.0714324949449
 20
-2
  0
VERTEX
  8
1
 10
54.0714324949449
 20
-2
  0
VERTEX
  8
1
 10
54.0714324949449
 20
4
  0
SEQEND
  8
1
  0
INSERT
  8
1
  2
LCA1
 10
54.0714324949449
 20
4
 50
90
  0
POLYLINE
  8
1
 70
1
 66
1
 40
0.5
 41
0.5
  0
VERTEX
  8
1
 10
25.8214324949449
 20
0
 42
1
  0
VERTEX
  8
1
 10
26.3214324949449
 20
0
 42
1
  0
SEQEND
  8
1
  0
POLYLINE
  8
1
 70
1
 66
1
 40
0.5
 41
0.5
  0
VERTEX
  8
1
 10
9.82143249494491
 20
0
 42
1
  0
VERTEX
  8
1
 10
10.3214324949449
 20
0
 42
1
  0
SEQEND
  8
1
  0
POLYLINE
  8
1
 70
1
 66
1
 40
0.5
 41
0.5
  0
VERTEX
  8
1
 10
13.8214324949449
 20
0
 42
1
  0
VERTEX
  8
1
 10
14.3214324949449
 20
0
 42
1
  0
SEQEND
  8
1
  0
POLYLINE
  8
1
 70
1
 66
1
 40
0.5
 41
0.5
  0
VERTEX
  8
1
 10
17.8214324949449
 20
0
 42
1
  0
VERTEX
  8
1
 10
18.3214324949449
 20
0
 42
1
  0
SEQEND
  8
1
  0
POLYLINE
  8
1
 66
1
  0
VERTEX
  8
1
 10
14.0714324949449
 20
-4
  0
VERTEX
  8
1
 10
14.0714324949449
 20
-2
  0
VERTEX
  8
1
 10
22.0714324949449
 20
-2
  0
VERTEX
  8
1
 10
22.0714324949449
 20
4
  0
SEQEND
  8
1
  0
INSERT
  8
1
  2
LCA1
 10
22.0714324949449
 20
4
 50
90
  0
POLYLINE
  8
1
 66
1
  0
VERTEX
  8
1
 10
30.0714324949449
 20
4
  0
VERTEX
  8
1
 10
30.0714324949449
 20
0
  0
VERTEX
  8
1
 10
6.07143249494491
 20
0
  0
VERTEX
  8
1
 10
6.07143249494491
 20
-4
  0
SEQEND
  8
1
  0
INSERT
  8
1
  2
LCA1
 10
6.07143249494491
 20
-4
 50
-90
  0
LINE
  8
1
 10
26.0714324949449
 20
4
 11
26.0714324949449
 21
0
  0
LINE
  8
1
 10
18.0714324949449
 20
4
 11
18.0714324949449
 21
0
  0
LINE
  8
1
 10
14.0714324949449
 20
4
 11
14.0714324949449
 21
0
  0
LINE
  8
1
 10
10.0714324949449
 20
4
 11
10.0714324949449
 21
0
  0
POLYLINE
  8
1
 70
1
 66
1
 40
0.5
 41
0.5
  0
VERTEX
  8
1
 10
-6.17856750505509
 20
0
 42
1
  0
VERTEX
  8
1
 10
-5.67856750505509
 20
0
 42
1
  0
SEQEND
  8
1
  0
POLYLINE
  8
1
 70
1
 66
1
 40
0.5
 41
0.5
  0
VERTEX
  8
1
 10
-2.17856750505509
 20
0
 42
1
  0
VERTEX
  8
1
 10
-1.67856750505509
 20
0
 42
1
  0
SEQEND
  8
1
  0
POLYLINE
  8
1
 70
1
 66
1
 40
0.5
 41
0.5
  0
VERTEX
  8
1
 10
-18.1785675050551
 20
0
 42
1
  0
VERTEX
  8
1
 10
-17.6785675050551
 20
0
 42
1
  0
SEQEND
  8
1
  0
POLYLINE
  8
1
 70
1
 66
1
 40
0.5
 41
0.5
  0
VERTEX
  8
1
 10
-14.1785675050551
 20
0
 42
1
  0
VERTEX
  8
1
 10
-13.6785675050551
 20
0
 42
1
  0
SEQEND
  8
1
  0
LINE
  8
1
 10
-5.92856750505509
 20
4
 11
-5.92856750505509
 21
0
  0
POLYLINE
  8
1
 66
1
  0
VERTEX
  8
1
 10
-13.9285675050551
 20
-4
  0
VERTEX
  8
1
 10
-13.9285675050551
 20
-2
  0
VERTEX
  8
1
 10
-9.92856750505509
 20
-2
  0
VERTEX
  8
1
 10
-9.92856750505509
 20
4
  0
SEQEND
  8
1
  0
INSERT
  8
1
  2
LCA1
 10
-9.92856750505509
 20
4
 50
90
  0
POLYLINE
  8
1
 66
1
  0
VERTEX
  8
1
 10
2.07143249494491
 20
4
  0
VERTEX
  8
1
 10
2.07143249494491
 20
0
  0
VERTEX
  8
1
 10
-21.9285675050551
 20
0
  0
VERTEX
  8
1
 10
-21.9285675050551
 20
-4
  0
SEQEND
  8
1
  0
INSERT
  8
1
  2
LCA1
 10
-21.9285675050551
 20
-4
 50
-90
  0
LINE
  8
1
 10
-1.92856750505509
 20
4
 11
-1.92856750505509
 21
0
  0
LINE
  8
1
 10
-13.9285675050551
 20
4
 11
-13.9285675050551
 21
0
  0
LINE
  8
1
 10
-17.9285675050551
 20
4
 11
-17.9285675050551
 21
0
  0
POLYLINE
  8
1
 70
1
 66
1
 40
0.5
 41
0.5
  0
VERTEX
  8
1
 10
-38.1785675050551
 20
0
 42
1
  0
VERTEX
  8
1
 10
-37.6785675050551
 20
0
 42
1
  0
SEQEND
  8
1
  0
POLYLINE
  8
1
 70
1
 66
1
 40
0.5
 41
0.5
  0
VERTEX
  8
1
 10
-34.1785675050551
 20
0
 42
1
  0
VERTEX
  8
1
 10
-33.6785675050551
 20
0
 42
1
  0
SEQEND
  8
1
  0
POLYLINE
  8
1
 70
1
 66
1
 40
0.5
 41
0.5
  0
VERTEX
  8
1
 10
-30.1785675050551
 20
0
 42
1
  0
VERTEX
  8
1
 10
-29.6785675050551
 20
0
 42
1
  0
SEQEND
  8
1
  0
POLYLINE
  8
1
 70
1
 66
1
 40
0.5
 41
0.5
  0
VERTEX
  8
1
 10
-46.1785675050551
 20
0
 42
1
  0
VERTEX
  8
1
 10
-45.6785675050551
 20
0
 42
1
  0
SEQEND
  8
1
  0
LINE
  8
1
 10
-37.9285675050551
 20
4
 11
-37.9285675050551
 21
0
  0
POLYLINE
  8
1
 66
1
  0
VERTEX
  8
1
 10
-25.9285675050551
 20
4
  0
VERTEX
  8
1
 10
-25.9285675050551
 20
0
  0
VERTEX
  8
1
 10
-49.9285675050551
 20
0
  0
VERTEX
  8
1
 10
-49.9285675050551
 20
-4
  0
SEQEND
  8
1
  0
INSERT
  8
1
  2
LCA1
 10
-49.9285675050551
 20
-4
 50
-90
  0
LINE
  8
1
 10
-41.9285675050551
 20
-4
 11
-41.9285675050551
 21
4
  0
INSERT
  8
1
  2
LCA1
 10
-41.9285675050551
 20
4
 50
90
  0
LINE
  8
1
 10
-33.9285675050551
 20
4
 11
-33.9285675050551
 21
0
  0
LINE
  8
1
 10
-29.9285675050551
 20
4
 11
-29.9285675050551
 21
0
  0
LINE
  8
1
 10
-45.9285675050551
 20
4
 11
-45.9285675050551
 21
0
  0
POLYLINE
  8
1
 70
1
 66
1
 40
0.5
 41
0.5
  0
VERTEX
  8
1
 10
-70.1785734414796
 20
0
 42
1
  0
VERTEX
  8
1
 10
-69.6785734414796
 20
0
 42
1
  0
SEQEND
  8
1
  0
POLYLINE
  8
1
 70
1
 66
1
 40
0.5
 41
0.5
  0
VERTEX
  8
1
 10
-66.1785734414796
 20
0
 42
1
  0
VERTEX
  8
1
 10
-65.6785734414796
 20
0
 42
1
  0
SEQEND
  8
1
  0
POLYLINE
  8
1
 70
1
 66
1
 40
0.5
 41
0.5
  0
VERTEX
  8
1
 10
-62.1785734414796
 20
0
 42
1
  0
VERTEX
  8
1
 10
-61.6785734414796
 20
0
 42
1
  0
SEQEND
  8
1
  0
POLYLINE
  8
1
 70
1
 66
1
 40
0.5
 41
0.5
  0
VERTEX
  8
1
 10
-58.1785734414796
 20
0
 42
1
  0
VERTEX
  8
1
 10
-57.6785734414796
 20
0
 42
1
  0
SEQEND
  8
1
  0
LINE
  8
1
 10
-69.9285734414796
 20
4
 11
-69.9285734414796
 21
0
  0
POLYLINE
  8
1
 66
1
  0
VERTEX
  8
1
 10
-69.9285734414796
 20
-4
  0
VERTEX
  8
1
 10
-69.9285734414796
 20
-2
  0
VERTEX
  8
1
 10
-73.9285734414796
 20
-2
  0
VERTEX
  8
1
 10
-73.9285734414796
 20
4
  0
SEQEND
  8
1
  0
INSERT
  8
1
  2
LCA1
 10
-73.9285734414796
 20
4
 50
90
  0
LINE
  8
1
 10
-65.928567505055
 20
4
 11
-65.928567505055
 21
0
  0
POLYLINE
  8
1
 66
1
  0
VERTEX
  8
1
 10
-53.9285675050551
 20
4
  0
VERTEX
  8
1
 10
-53.9285675050551
 20
0
  0
VERTEX
  8
1
 10
-77.9285675050551
 20
0
  0
VERTEX
  8
1
 10
-77.9285675050551
 20
-4
  0
SEQEND
  8
1
  0
INSERT
  8
1
  2
LCA1
 10
-77.9285675050551
 20
-4
 50
-90
  0
LINE
  8
1
 10
-61.928567505055
 20
4
 11
-61.928567505055
 21
0
  0
LINE
  8
1
 10
-57.928567505055
 20
4
 11
-57.928567505055
 21
0
  0
CIRCLE
  8
1
 10
-87.0714265585203
 20
3.00002746461428
 40
1
  0
LINE
  8
1
 10
-85.0714265585203
 20
-3.99997253538572
 11
-86.7967054306283
 21
2.03850351699221
  0
LINE
  8
1
 10
-79.9285675050551
 20
-3
 11
-85.3571251501871
 21
-3
  0
LINE
  8
1
 10
-82.9285675050551
 20
0
 11
-82.9285675050551
 21
2
  0
LINE
  8
1
 10
-84.1785675050551
 20
-1
 11
-85.9285615686305
 21
-1
  0
LINE
  8
1
 10
-79.9285675050551
 20
-1
 11
-81.6785675050551
 21
-1
  0
POLYLINE
  8
1
 66
1
  0
VERTEX
  8
1
 10
-84.178567505055
 20
-1
  0
VERTEX
  8
1
 10
-83.678567505055
 20
-1
  0
VERTEX
  8
1
 10
-82.928567505055
 20
-2.29903810567665
  0
VERTEX
  8
1
 10
-82.178567505055
 20
-1
  0
VERTEX
  8
1
 10
-81.678567505055
 20
-1
  0
SEQEND
  8
1
  0
CIRCLE
  8
CONNECTIONS
 10
62.0714324949449
 20
-8
 40
0
  0
CIRCLE
  8
CONNECTIONS
 10
70.0714324949449
 20
-8
 40
0
  0
CIRCLE
  8
CONNECTIONS
 10
66.0714324949449
 20
8
 40
0
  0
CIRCLE
  8
CONNECTIONS
 10
70.0714324949449
 20
8
 40
0
  0
CIRCLE
  8
CONNECTIONS
 10
74.0714324949449
 20
8
 40
0
  0
CIRCLE
  8
CONNECTIONS
 10
78.0714324949449
 20
8
 40
0
  0
CIRCLE
  8
CONNECTIONS
 10
82.0714324949449
 20
8
 40
0
  0
CIRCLE
  8
CONNECTIONS
 10
86.0714324949449
 20
8
 40
0
  0
ENDBLK
  8
0
  0
ENDSEC
  0
SECTION
  2
ENTITIES
  0
INSERT
  8
1
  2
B202859_00991542
 10
88.0714265585203
 20
8
  0
ENDSEC
  0
EOF
