  0
SECTION
  2
HEADER
  9
$LIMMIN
 10
0
 20
0
  9
$LIMMAX
 10
52.5
 20
74.25
  9
$EXTMIN
 10
0
 20
31.6274169979695
  9
$EXTMAX
 10
0
 20
21.3137084989847
  0
ENDSEC
  0
SECTION
  2
TABLES
  0
TABLE
  2
LTYPE
 70
9
  0
LTYPE
  2
CONTINUOUS
 70
64
  3
Solid line
 72
65
 73
0
 40
0
  0
LTYPE
  2
DASHED
 70
64
  3
__ __ __ __ __ __ __ __ __
 72
65
 73
2
 40
0.75
 49
0.5
 49
-0.25
  0
LTYPE
  2
DOT
 70
64
  3
...........................
 72
65
 73
2
 40
0.25
 49
0
 49
-0.25
  0
LTYPE
  2
DASHDOT
 70
64
  3
__ . __ . __ . __ . __ . __ . 
 72
65
 73
4
 40
1
 49
0.5
 49
-0.25
 49
0
 49
-0.25
  0
ENDTAB
  0
TABLE
  2
LAYER
 70
10
  0
LAYER
  2
1
 70
0
 62
7
  6
CONTINUOUS
  0
LAYER
  2
CONNECTIONS
 70
0
 62
-7
  6
CONTINUOUS
  0
ENDTAB
  0
ENDSEC
  0
SECTION
  2
BLOCKS
  0
BLOCK
  8
0
  2
TRICON
 70
0
 10
0
 20
0
  0
POLYLINE
  8
1
 70
1
 66
1
 40
0.5
 41
0.5
  0
VERTEX
  8
1
 10
-0.25
 20
0
 42
1
  0
VERTEX
  8
1
 10
0.25
 20
0
 42
1
  0
SEQEND
  8
1
  0
ENDBLK
  8
0
  0
BLOCK
  8
0
  2
TRICONSMALL
 70
0
 10
0
 20
0
  0
POLYLINE
  8
1
 70
1
 66
1
 40
0.25
 41
0.25
  0
VERTEX
  8
1
 10
-0.125
 20
0
 42
1
  0
VERTEX
  8
1
 10
0.125
 20
0
 42
1
  0
SEQEND
  8
1
  0
ENDBLK
  8
0
  0
BLOCK
  8
0
  2
TRICONCIRCLE
 70
0
 10
0
 20
0
  0
CIRCLE
  8
1
 10
0
 20
0
 40
0.5
  0
ENDBLK
  8
0
  0
BLOCK
  8
0
  2
LCBP0
 70
0
 10
0
 20
0
  0
LINE
  8
1
 10
0
 20
-0.46875
 11
0
 21
0.46875
  0
ENDBLK
  8
0
  0
BLOCK
  8
0
  2
LCBP1
 70
0
 10
0
 20
0
  0
LINE
  8
1
 10
0
 20
-0.625
 11
0
 21
0.625
  0
ENDBLK
  8
0
  0
BLOCK
  8
0
  2
LCBP2
 70
0
 10
0
 20
0
  0
LINE
  8
1
 10
0
 20
-0.9375
 11
0
 21
0.9375
  0
ENDBLK
  8
0
  0
BLOCK
  8
0
  2
LCA1
 70
0
 10
0
 20
0
  0
SOLID
  8
1
 62
7 
 10
0
 20
0
 11
-1.4
 21
-0.275
 12
-1.4
 22
0.275
 13
-1.4
 23
0.275
  0
ENDBLK
  8
0
  0
BLOCK
  8
0
  2
LCA2
 70
0
 10
0
 20
0
  0
SOLID
  8
1
 62
7 
 10
0
 20
0
 11
-1.65
 21
-0.525
 12
-1.65
 22
0.525
 13
-1.65
 23
0.525
  0
ENDBLK
  8
0
  0
BLOCK
  8
0
  2
LCA3
 70
0
 10
0
 20
0
  0
SOLID
  8
1
 62
7 
 10
0
 20
0
 11
-2.15
 21
-1.15
 12
-2.15
 22
1.15
 13
-2.15
 23
1.15
  0
ENDBLK
  8
0
  0
BLOCK
  8
0
  2
LCA1R
 70
0
 10
0
 20
0
  0
SOLID
  8
1
 62
7 
 10
0
 20
0
 11
1.4
 21
-0.275
 12
1.4
 22
0.275
 13
1.4
 23
0.275
  0
ENDBLK
  8
0
  0
BLOCK
  8
0
  2
LCA2R
 70
0
 10
0
 20
0
  0
SOLID
  8
1
 62
7 
 10
0
 20
0
 11
1.65
 21
-0.525
 12
1.65
 22
0.525
 13
1.65
 23
0.525
  0
ENDBLK
  8
0
  0
BLOCK
  8
0
  2
LCA3R
 70
0
 10
0
 20
0
  0
SOLID
  8
1
 62
7 
 10
0
 20
0
 11
2.15
 21
-1.15
 12
2.15
 22
1.15
 13
2.15
 23
1.15
  0
ENDBLK
  8
0
  0
BLOCK
  8
0
  2
B2069_00991530
 70
0
 10
0
 20
0
  0
LINE
  8
1
 10
11.8137084989848
 20
-0.999999999999981
 11
15.8137084989848
 21
-0.999999999999981
  0
LINE
  8
1
 10
-15.8137084989848
 20
-0.99999999999999
 11
-11.8137084989848
 21
-0.99999999999999
  0
TEXT
  8
1
 40
2.475
 41
0.75
  1
1
  7
STANDARD
 72
2
 10
-13.8137084989848
 20
0.237500000000008
 11
-13.8137084989848
 21
0.237500000000008
  0
TEXT
  8
1
 40
2.475
 41
0.75
  1
2
  7
STANDARD
 10
13.8137084989848
 20
0.237500000000019
  0
LINE
  8
1
 10
-0.499999999999986
 20
-0.99999999999999
 11
0.499999999999995
 21
-0.99999999999999
  0
LINE
  8
1
  6
DASHED
 10
-6.15684011598955
 20
-3.15685424949237
 11
-6.15684011598955
 21
4.65685424949235
  0
LINE
  8
1
 10
-7.53554414769895
 20
-3.15684400772616
 11
-6.15685424949238
 21
-4.53553390593273
  0
LINE
  8
1
 10
-6.15685424949238
 20
-4.53553390593273
 11
-4.77820587168238
 21
-3.15688552812274
  0
LINE
  8
1
 10
-2.65683231255644
 20
-3.15685424949237
 11
-9.65684791942263
 21
-3.15685424949237
  0
POLYLINE
  8
1
 66
1
  0
VERTEX
  8
1
 10
-6.15685424949239
 20
4.65685424949236
  0
VERTEX
  8
1
 10
-11.8137084989848
 20
-0.999999999999993
  0
VERTEX
  8
1
 10
-6.15685424949239
 20
-6.65685424949237
  0
VERTEX
  8
1
 10
-0.499999999999986
 20
-0.999999999999993
  0
VERTEX
  8
1
 10
-6.15685424949239
 20
4.65685424949236
  0
SEQEND
  8
1
  0
LINE
  8
1
 10
-6.15685424949238
 20
-6.65685424949237
 11
-6.15685424949238
 21
-10.6568542494924
  0
LINE
  8
1
  6
DASHED
 10
6.15686838299521
 20
-3.15685424949235
 11
6.15686838299521
 21
4.65685424949237
  0
LINE
  8
1
 10
4.77816435128581
 20
-3.15684400772615
 11
6.15685424949237
 21
-4.53553390593271
  0
LINE
  8
1
 10
6.15685424949237
 20
-4.53553390593271
 11
7.53550262730237
 21
-3.15688552812272
  0
LINE
  8
1
 10
9.65687618642832
 20
-3.15685424949235
 11
2.65686057956212
 21
-3.15685424949235
  0
POLYLINE
  8
1
 66
1
  0
VERTEX
  8
1
 10
6.15685424949236
 20
4.65685424949238
  0
VERTEX
  8
1
 10
0.499999999999988
 20
-0.999999999999975
  0
VERTEX
  8
1
 10
6.15685424949236
 20
-6.65685424949234
  0
VERTEX
  8
1
 10
11.8137084989848
 20
-0.999999999999975
  0
VERTEX
  8
1
 10
6.15685424949236
 20
4.65685424949238
  0
SEQEND
  8
1
  0
LINE
  8
1
 10
6.15685424949237
 20
-6.65685424949235
 11
6.15685424949237
 21
-10.6568542494923
  0
LINE
  8
1
 10
7.59617622409334
 20
6.59619407771255
 11
9.71749656765298
 21
8.71751442127219
  0
LINE
  8
1
 10
7.59617622409334
 20
8.71751442127219
 11
9.71749656765298
 21
6.59619407771255
  0
CIRCLE
  8
1
 10
8.65683639587315
 20
7.65685424949237
 40
1.5
  0
LINE
  8
1
 10
5.42460334883952
 20
5.889087296526
 11
1.88906944290678
 21
9.42462120245874
  0
INSERT
  8
1
  2
LCA1
 10
1.88906944290678
 20
9.42462120245874
 50
135
  0
POLYLINE
  8
1
 66
1
  0
VERTEX
  8
1
 10
1.15683639587316
 20
10.6568542494924
  0
VERTEX
  8
1
 10
11.1568363958732
 20
10.6568542494924
  0
VERTEX
  8
1
 10
11.1568363958732
 20
4.65685424949237
  0
VERTEX
  8
1
 10
1.15683639587316
 20
4.65685424949237
  0
VERTEX
  8
1
 10
1.15683639587316
 20
10.6568542494924
  0
SEQEND
  8
1
  0
LINE
  8
1
 10
-4.71753227489142
 20
6.59619407771255
 11
-2.59621193133178
 21
8.71751442127219
  0
LINE
  8
1
 10
-4.71753227489142
 20
8.71751442127219
 11
-2.59621193133178
 21
6.59619407771255
  0
CIRCLE
  8
1
 10
-3.6568721031116
 20
7.65685424949237
 40
1.5
  0
LINE
  8
1
 10
-6.88910515014524
 20
5.889087296526
 11
-10.424639056078
 21
9.42462120245874
  0
INSERT
  8
1
  2
LCA1
 10
-10.424639056078
 20
9.42462120245874
 50
135
  0
POLYLINE
  8
1
 66
1
  0
VERTEX
  8
1
 10
-11.1568721031116
 20
10.6568542494924
  0
VERTEX
  8
1
 10
-1.1568721031116
 20
10.6568542494924
  0
VERTEX
  8
1
 10
-1.1568721031116
 20
4.65685424949237
  0
VERTEX
  8
1
 10
-11.1568721031116
 20
4.65685424949237
  0
VERTEX
  8
1
 10
-11.1568721031116
 20
10.6568542494924
  0
SEQEND
  8
1
  0
CIRCLE
  8
CONNECTIONS
 10
15.8137084989848
 20
-0.999999999999981
 40
0
  0
CIRCLE
  8
CONNECTIONS
 10
-15.8137084989848
 20
-0.99999999999999
 40
0
  0
ENDBLK
  8
0
  0
ENDSEC
  0
SECTION
  2
ENTITIES
  0
INSERT
  8
1
  2
B2069_00991530
 10
15.8137084989848
 20
10.6568542494924
  0
ENDSEC
  0
EOF
