  0
SECTION
  2
HEADER
  9
$LIMMIN
 10
0
 20
0
  9
$LIMMAX
 10
52.5
 20
74.25
  9
$EXTMIN
 10
0
 20
34
  9
$EXTMAX
 10
0
 20
20.5
  0
ENDSEC
  0
SECTION
  2
TABLES
  0
TABLE
  2
LTYPE
 70
9
  0
LTYPE
  2
CONTINUOUS
 70
64
  3
Solid line
 72
65
 73
0
 40
0
  0
LTYPE
  2
DASHED
 70
64
  3
__ __ __ __ __ __ __ __ __
 72
65
 73
2
 40
0.75
 49
0.5
 49
-0.25
  0
LTYPE
  2
DOT
 70
64
  3
...........................
 72
65
 73
2
 40
0.25
 49
0
 49
-0.25
  0
LTYPE
  2
DASHDOT
 70
64
  3
__ . __ . __ . __ . __ . __ . 
 72
65
 73
4
 40
1
 49
0.5
 49
-0.25
 49
0
 49
-0.25
  0
ENDTAB
  0
TABLE
  2
LAYER
 70
10
  0
LAYER
  2
1
 70
0
 62
7
  6
CONTINUOUS
  0
LAYER
  2
CONNECTIONS
 70
0
 62
-7
  6
CONTINUOUS
  0
ENDTAB
  0
ENDSEC
  0
SECTION
  2
BLOCKS
  0
BLOCK
  8
0
  2
TRICON
 70
0
 10
0
 20
0
  0
POLYLINE
  8
1
 70
1
 66
1
 40
0.5
 41
0.5
  0
VERTEX
  8
1
 10
-0.25
 20
0
 42
1
  0
VERTEX
  8
1
 10
0.25
 20
0
 42
1
  0
SEQEND
  8
1
  0
ENDBLK
  8
0
  0
BLOCK
  8
0
  2
TRICONSMALL
 70
0
 10
0
 20
0
  0
POLYLINE
  8
1
 70
1
 66
1
 40
0.25
 41
0.25
  0
VERTEX
  8
1
 10
-0.125
 20
0
 42
1
  0
VERTEX
  8
1
 10
0.125
 20
0
 42
1
  0
SEQEND
  8
1
  0
ENDBLK
  8
0
  0
BLOCK
  8
0
  2
TRICONCIRCLE
 70
0
 10
0
 20
0
  0
CIRCLE
  8
1
 10
0
 20
0
 40
0.5
  0
ENDBLK
  8
0
  0
BLOCK
  8
0
  2
LCBP0
 70
0
 10
0
 20
0
  0
LINE
  8
1
 10
0
 20
-0.46875
 11
0
 21
0.46875
  0
ENDBLK
  8
0
  0
BLOCK
  8
0
  2
LCBP1
 70
0
 10
0
 20
0
  0
LINE
  8
1
 10
0
 20
-0.625
 11
0
 21
0.625
  0
ENDBLK
  8
0
  0
BLOCK
  8
0
  2
LCBP2
 70
0
 10
0
 20
0
  0
LINE
  8
1
 10
0
 20
-0.9375
 11
0
 21
0.9375
  0
ENDBLK
  8
0
  0
BLOCK
  8
0
  2
LCA1
 70
0
 10
0
 20
0
  0
SOLID
  8
1
 62
7 
 10
0
 20
0
 11
-1.4
 21
-0.275
 12
-1.4
 22
0.275
 13
-1.4
 23
0.275
  0
ENDBLK
  8
0
  0
BLOCK
  8
0
  2
LCA2
 70
0
 10
0
 20
0
  0
SOLID
  8
1
 62
7 
 10
0
 20
0
 11
-1.65
 21
-0.525
 12
-1.65
 22
0.525
 13
-1.65
 23
0.525
  0
ENDBLK
  8
0
  0
BLOCK
  8
0
  2
LCA3
 70
0
 10
0
 20
0
  0
SOLID
  8
1
 62
7 
 10
0
 20
0
 11
-2.15
 21
-1.15
 12
-2.15
 22
1.15
 13
-2.15
 23
1.15
  0
ENDBLK
  8
0
  0
BLOCK
  8
0
  2
LCA1R
 70
0
 10
0
 20
0
  0
SOLID
  8
1
 62
7 
 10
0
 20
0
 11
1.4
 21
-0.275
 12
1.4
 22
0.275
 13
1.4
 23
0.275
  0
ENDBLK
  8
0
  0
BLOCK
  8
0
  2
LCA2R
 70
0
 10
0
 20
0
  0
SOLID
  8
1
 62
7 
 10
0
 20
0
 11
1.65
 21
-0.525
 12
1.65
 22
0.525
 13
1.65
 23
0.525
  0
ENDBLK
  8
0
  0
BLOCK
  8
0
  2
LCA3R
 70
0
 10
0
 20
0
  0
SOLID
  8
1
 62
7 
 10
0
 20
0
 11
2.15
 21
-1.15
 12
2.15
 22
1.15
 13
2.15
 23
1.15
  0
ENDBLK
  8
0
  0
BLOCK
  8
0
  2
B4236_00991495
 70
0
 10
0
 20
0
  0
LINE
  8
1
 10
0
 20
-3.25
 11
1
 21
-3.25
  0
LINE
  8
1
 10
-1
 20
-4.25
 11
0
 21
-4.25
  0
LINE
  8
1
 10
-1
 20
-8.25
 11
0
 21
-8.25
  0
LINE
  8
1
 10
0
 20
-9.25
 11
1
 21
-9.25
  0
LINE
  8
1
 10
-13
 20
-7.25
 11
-12
 21
-7.25
  0
LINE
  8
1
 10
-9
 20
-7.25
 11
-8
 21
-7.25
  0
LINE
  8
1
 10
-7
 20
-7.25
 11
-6
 21
-7.25
  0
LINE
  8
1
 10
-11
 20
-7.25
 11
-10
 21
-7.25
  0
LINE
  8
1
 10
-15
 20
-7.25
 11
-14
 21
-7.25
  0
LINE
  8
1
 10
-6
 20
-6.25
 11
-5
 21
-6.25
  0
LINE
  8
1
 10
-8
 20
-6.25
 11
-7
 21
-6.25
  0
LINE
  8
1
 10
-10
 20
-6.25
 11
-9
 21
-6.25
  0
LINE
  8
1
 10
-12
 20
-6.25
 11
-11
 21
-6.25
  0
LINE
  8
1
 10
-14
 20
-6.25
 11
-13
 21
-6.25
  0
LINE
  8
1
 10
-7
 20
-5.25
 11
-6
 21
-5.25
  0
LINE
  8
1
 10
-9
 20
-5.25
 11
-8
 21
-5.25
  0
LINE
  8
1
 10
-11
 20
-5.25
 11
-10
 21
-5.25
  0
LINE
  8
1
 10
-13
 20
-5.25
 11
-12
 21
-5.25
  0
LINE
  8
1
 10
-15
 20
-5.25
 11
-14
 21
-5.25
  0
LINE
  8
1
 10
-6
 20
-8.25
 11
-5
 21
-8.25
  0
LINE
  8
1
 10
-8
 20
-8.25
 11
-7
 21
-8.25
  0
LINE
  8
1
 10
-10
 20
-8.25
 11
-9
 21
-8.25
  0
LINE
  8
1
 10
-12
 20
-8.25
 11
-11
 21
-8.25
  0
LINE
  8
1
 10
-14
 20
-8.25
 11
-13
 21
-8.25
  0
LINE
  8
1
 10
-7
 20
-9.25
 11
-6
 21
-9.25
  0
LINE
  8
1
 10
-9
 20
-9.25
 11
-8
 21
-9.25
  0
LINE
  8
1
 10
-11
 20
-9.25
 11
-10
 21
-9.25
  0
LINE
  8
1
 10
-13
 20
-9.25
 11
-12
 21
-9.25
  0
LINE
  8
1
 10
-15
 20
-9.25
 11
-14
 21
-9.25
  0
LINE
  8
1
 10
-6
 20
-4.25
 11
-5
 21
-4.25
  0
LINE
  8
1
 10
-8
 20
-4.25
 11
-7
 21
-4.25
  0
LINE
  8
1
 10
-10
 20
-4.25
 11
-9
 21
-4.25
  0
LINE
  8
1
 10
-12
 20
-4.25
 11
-11
 21
-4.25
  0
LINE
  8
1
 10
-14
 20
-4.25
 11
-13
 21
-4.25
  0
LINE
  8
1
 10
-7
 20
-3.25
 11
-6
 21
-3.25
  0
LINE
  8
1
 10
-9
 20
-3.25
 11
-8
 21
-3.25
  0
LINE
  8
1
 10
-11
 20
-3.25
 11
-10
 21
-3.25
  0
LINE
  8
1
 10
-13
 20
-3.25
 11
-12
 21
-3.25
  0
LINE
  8
1
 10
-15
 20
-3.25
 11
-14
 21
-3.25
  0
LINE
  8
1
 10
-17
 20
-9.25
 11
-16
 21
-9.25
  0
LINE
  8
1
 10
-16
 20
-8.25
 11
-15
 21
-8.25
  0
LINE
  8
1
 10
-17
 20
-7.25
 11
-16
 21
-7.25
  0
LINE
  8
1
 10
-16
 20
-6.25
 11
-15
 21
-6.25
  0
LINE
  8
1
 10
-17
 20
-5.25
 11
-16
 21
-5.25
  0
LINE
  8
1
 10
-16
 20
-4.25
 11
-15
 21
-4.25
  0
LINE
  8
1
 10
-17
 20
-3.25
 11
-16
 21
-3.25
  0
POLYLINE
  8
1
 70
1
 66
1
 40
0.5
 41
0.5
  0
VERTEX
  8
1
 10
-4.25
 20
6.75
 42
1
  0
VERTEX
  8
1
 10
-3.75
 20
6.75
 42
1
  0
SEQEND
  8
1
  0
POLYLINE
  8
1
 70
1
 66
1
 40
0.5
 41
0.5
  0
VERTEX
  8
1
 10
-12.25
 20
6.75
 42
1
  0
VERTEX
  8
1
 10
-11.75
 20
6.75
 42
1
  0
SEQEND
  8
1
  0
LINE
  8
1
 10
-4
 20
0.75
 11
-4
 21
6.75
  0
LINE
  8
1
 10
-12
 20
0.75
 11
-12
 21
6.75
  0
LINE
  8
1
 10
0
 20
6.75
 11
0
 21
-2.25
  0
LINE
  8
1
 10
-16
 20
6.75
 11
-16
 21
-2.25
  0
LINE
  8
1
 10
-6.03333333333333
 20
0.75
 11
-4.01666666666667
 21
0.75
  0
LINE
  8
1
 10
-12
 20
0.75
 11
-8.53333333333334
 21
0.75
  0
POLYLINE
  8
1
 66
1
  0
VERTEX
  8
1
 10
-8
 20
-1.25
  0
VERTEX
  8
1
 10
-6
 20
0.75
  0
VERTEX
  8
1
 10
-8
 20
2.75
  0
SEQEND
  8
1
  0
CIRCLE
  8
1
 10
-7.53333333333333
 20
0.75
 40
1
  0
LINE
  8
1
 10
-9.5
 20
3.25
 11
-6.5
 21
10.25
  0
INSERT
  8
1
  2
LCA1
 10
-6.5
 20
10.25
 50
66.8014094863518
  0
LINE
  8
1
 10
0
 20
6.75
 11
-16
 21
6.75
  0
ARC
  8
1
 10
-8
 20
-3.25
 40
9
 50
70.5289494206614
 51
109.471403199945
  0
ARC
  8
1
 10
-8
 20
16.75
 40
9
 50
250.52860468454
 51
289.47134129249
  0
POLYLINE
  8
1
 66
1
  0
VERTEX
  8
1
 10
-17
 20
-10.25
  0
VERTEX
  8
1
 10
-15
 20
-2.25
  0
VERTEX
  8
1
 10
-13
 20
-10.25
  0
VERTEX
  8
1
 10
-11
 20
-2.25
  0
VERTEX
  8
1
 10
-9
 20
-10.25
  0
VERTEX
  8
1
 10
-7
 20
-2.25
  0
VERTEX
  8
1
 10
-5
 20
-10.25
  0
SEQEND
  8
1
  0
POLYLINE
  8
1
 66
1
  0
VERTEX
  8
1
 10
-5
 20
-2.25
  0
VERTEX
  8
1
 10
-1
 20
-2.25
  0
VERTEX
  8
1
 10
-1
 20
-10.25
  0
VERTEX
  8
1
 10
-5
 20
-10.25
  0
VERTEX
  8
1
 10
-5
 20
-2.25
  0
SEQEND
  8
1
  0
LINE
  8
1
 10
1
 20
-2.25
 11
1
 21
-5.25
  0
LINE
  8
1
 10
1
 20
-7.25
 11
1
 21
-10.25
  0
LINE
  8
1
 10
-17
 20
-2.25
 11
-17
 21
-10.25
  0
LINE
  8
1
 10
-17
 20
-2.25
 11
1
 21
-2.25
  0
LINE
  8
1
 10
-17
 20
-10.25
 11
1
 21
-10.25
  0
POLYLINE
  8
1
 66
1
  0
VERTEX
  8
1
 10
-1
 20
-5.25
  0
VERTEX
  8
1
 10
17
 20
-5.25
  0
VERTEX
  8
1
 10
17
 20
-7.25
  0
VERTEX
  8
1
 10
-1
 20
-7.25
  0
SEQEND
  8
1
  0
ENDBLK
  8
0
  0
ENDSEC
  0
SECTION
  2
ENTITIES
  0
INSERT
  8
1
  2
B4236_00991495
 10
17
 20
10.25
  0
ENDSEC
  0
EOF
