  0
SECTION
  2
HEADER
  9
$LIMMIN
 10
0
 20
0
  9
$LIMMAX
 10
52.5
 20
74.25
  9
$EXTMIN
 10
0
 20
82
  9
$EXTMAX
 10
0
 20
24
  0
ENDSEC
  0
SECTION
  2
TABLES
  0
TABLE
  2
LTYPE
 70
9
  0
LTYPE
  2
CONTINUOUS
 70
64
  3
Solid line
 72
65
 73
0
 40
0
  0
LTYPE
  2
DASHED
 70
64
  3
__ __ __ __ __ __ __ __ __
 72
65
 73
2
 40
0.75
 49
0.5
 49
-0.25
  0
LTYPE
  2
DOT
 70
64
  3
...........................
 72
65
 73
2
 40
0.25
 49
0
 49
-0.25
  0
LTYPE
  2
DASHDOT
 70
64
  3
__ . __ . __ . __ . __ . __ . 
 72
65
 73
4
 40
1
 49
0.5
 49
-0.25
 49
0
 49
-0.25
  0
ENDTAB
  0
TABLE
  2
LAYER
 70
10
  0
LAYER
  2
1
 70
0
 62
7
  6
CONTINUOUS
  0
LAYER
  2
CONNECTIONS
 70
0
 62
-7
  6
CONTINUOUS
  0
ENDTAB
  0
ENDSEC
  0
SECTION
  2
BLOCKS
  0
BLOCK
  8
0
  2
TRICON
 70
0
 10
0
 20
0
  0
POLYLINE
  8
1
 70
1
 66
1
 40
0.5
 41
0.5
  0
VERTEX
  8
1
 10
-0.25
 20
0
 42
1
  0
VERTEX
  8
1
 10
0.25
 20
0
 42
1
  0
SEQEND
  8
1
  0
ENDBLK
  8
0
  0
BLOCK
  8
0
  2
TRICONSMALL
 70
0
 10
0
 20
0
  0
POLYLINE
  8
1
 70
1
 66
1
 40
0.25
 41
0.25
  0
VERTEX
  8
1
 10
-0.125
 20
0
 42
1
  0
VERTEX
  8
1
 10
0.125
 20
0
 42
1
  0
SEQEND
  8
1
  0
ENDBLK
  8
0
  0
BLOCK
  8
0
  2
TRICONCIRCLE
 70
0
 10
0
 20
0
  0
CIRCLE
  8
1
 10
0
 20
0
 40
0.5
  0
ENDBLK
  8
0
  0
BLOCK
  8
0
  2
LCBP0
 70
0
 10
0
 20
0
  0
LINE
  8
1
 10
0
 20
-0.46875
 11
0
 21
0.46875
  0
ENDBLK
  8
0
  0
BLOCK
  8
0
  2
LCBP1
 70
0
 10
0
 20
0
  0
LINE
  8
1
 10
0
 20
-0.625
 11
0
 21
0.625
  0
ENDBLK
  8
0
  0
BLOCK
  8
0
  2
LCBP2
 70
0
 10
0
 20
0
  0
LINE
  8
1
 10
0
 20
-0.9375
 11
0
 21
0.9375
  0
ENDBLK
  8
0
  0
BLOCK
  8
0
  2
LCA1
 70
0
 10
0
 20
0
  0
SOLID
  8
1
 62
7 
 10
0
 20
0
 11
-1.4
 21
-0.275
 12
-1.4
 22
0.275
 13
-1.4
 23
0.275
  0
ENDBLK
  8
0
  0
BLOCK
  8
0
  2
LCA2
 70
0
 10
0
 20
0
  0
SOLID
  8
1
 62
7 
 10
0
 20
0
 11
-1.65
 21
-0.525
 12
-1.65
 22
0.525
 13
-1.65
 23
0.525
  0
ENDBLK
  8
0
  0
BLOCK
  8
0
  2
LCA3
 70
0
 10
0
 20
0
  0
SOLID
  8
1
 62
7 
 10
0
 20
0
 11
-2.15
 21
-1.15
 12
-2.15
 22
1.15
 13
-2.15
 23
1.15
  0
ENDBLK
  8
0
  0
BLOCK
  8
0
  2
LCA1R
 70
0
 10
0
 20
0
  0
SOLID
  8
1
 62
7 
 10
0
 20
0
 11
1.4
 21
-0.275
 12
1.4
 22
0.275
 13
1.4
 23
0.275
  0
ENDBLK
  8
0
  0
BLOCK
  8
0
  2
LCA2R
 70
0
 10
0
 20
0
  0
SOLID
  8
1
 62
7 
 10
0
 20
0
 11
1.65
 21
-0.525
 12
1.65
 22
0.525
 13
1.65
 23
0.525
  0
ENDBLK
  8
0
  0
BLOCK
  8
0
  2
LCA3R
 70
0
 10
0
 20
0
  0
SOLID
  8
1
 62
7 
 10
0
 20
0
 11
2.15
 21
-1.15
 12
2.15
 22
1.15
 13
2.15
 23
1.15
  0
ENDBLK
  8
0
  0
BLOCK
  8
0
  2
B17329_00991462
 70
0
 10
0
 20
0
  0
POLYLINE
  8
1
 66
1
  0
VERTEX
  8
1
 10
-41
 20
8
  0
VERTEX
  8
1
 10
41
 20
8
  0
VERTEX
  8
1
 10
41
 20
-8
  0
VERTEX
  8
1
 10
-41
 20
-8
  0
VERTEX
  8
1
 10
-41
 20
8
  0
SEQEND
  8
1
  0
TEXT
  8
1
 40
2.475
 41
0.75
  1
A3
  7
STANDARD
 72
2
 73
3
 10
26
 20
11.88125
 11
26
 21
11.88125
  0
TEXT
  8
1
 40
2.475
 41
0.75
  1
A2
  7
STANDARD
 72
2
 73
3
 10
0
 20
11.88125
 11
0
 21
11.88125
  0
TEXT
  8
1
 40
2.475
 41
0.75
  1
A1
  7
STANDARD
 72
2
 73
3
 10
-26
 20
11.88125
 11
-26
 21
11.88125
  0
TEXT
  8
1
 40
2.475
 41
0.75
  1
Y3
  7
STANDARD
 72
2
 10
37
 20
-12.2625
 11
37
 21
-12.2625
  0
TEXT
  8
1
 40
2.475
 41
0.75
  1
X3
  7
STANDARD
 10
15
 20
-12.2625
  0
TEXT
  8
1
 40
2.475
 41
0.75
  1
Y2
  7
STANDARD
 72
2
 10
11
 20
-12.2625
 11
11
 21
-12.2625
  0
TEXT
  8
1
 40
2.475
 41
0.75
  1
X2
  7
STANDARD
 10
-11
 20
-12.2625
  0
TEXT
  8
1
 40
2.475
 41
0.75
  1
Y1
  7
STANDARD
 72
2
 10
-15
 20
-12.2625
 11
-15
 21
-12.2625
  0
TEXT
  8
1
 40
2.475
 41
0.75
  1
X1
  7
STANDARD
 10
-37
 20
-12.2625
  0
LINE
  8
1
 10
37
 20
-8
 11
37
 21
-12
  0
LINE
  8
1
 10
26
 20
8
 11
26
 21
12
  0
LINE
  8
1
 10
15
 20
-8
 11
15
 21
-12
  0
LINE
  8
1
 10
11
 20
-8
 11
11
 21
-12
  0
LINE
  8
1
 10
-11
 20
-8
 11
-11
 21
-12
  0
LINE
  8
1
 10
-15
 20
-8
 11
-15
 21
-12
  0
LINE
  8
1
 10
0
 20
8
 11
0
 21
12
  0
LINE
  8
1
 10
-26
 20
8
 11
-26
 21
12
  0
LINE
  8
1
 10
-37
 20
-8
 11
-37
 21
-12
  0
LINE
  8
1
 10
26
 20
4
 11
26
 21
8
  0
LINE
  8
1
 10
0
 20
4
 11
0
 21
8
  0
LINE
  8
1
 10
37
 20
0
 11
37
 21
-8
  0
LINE
  8
1
 10
15
 20
0
 11
15
 21
-8
  0
LINE
  8
1
 10
11
 20
0
 11
11
 21
-8
  0
LINE
  8
1
 10
-11
 20
0
 11
-11
 21
-8
  0
LINE
  8
1
 10
-15
 20
0
 11
-15
 21
-8
  0
LINE
  8
1
 10
-26
 20
4
 11
-26
 21
8
  0
LINE
  8
1
 10
-37
 20
0
 11
-37
 21
-8
  0
LINE
  8
1
 10
34
 20
0
 11
37
 21
0
  0
LINE
  8
1
 10
18
 20
0
 11
15
 21
0
  0
LINE
  8
1
 10
8
 20
0
 11
11
 21
0
  0
LINE
  8
1
 10
-8
 20
0
 11
-11
 21
0
  0
LINE
  8
1
 10
-18
 20
0
 11
-15
 21
0
  0
LINE
  8
1
 10
-34
 20
0
 11
-37
 21
0
  0
LINE
  8
1
 10
30
 20
4
 11
30
 21
2.5
  0
LINE
  8
1
 10
30
 20
-2.5
 11
30
 21
-4
  0
LINE
  8
1
 10
21.5
 20
-2.5
 11
21.5
 21
-4
  0
LINE
  8
1
 10
21.5
 20
4
 11
21.5
 21
2.5
  0
LINE
  8
1
 10
31.9999957578864
 20
1.99997168725836
 11
31.9999957578864
 21
-2.00002831274164
  0
LINE
  8
1
 10
20.0000021794527
 20
1.99997810882459
 11
20.0000021794527
 21
-2.00002189117542
  0
LINE
  8
1
 10
20.0000021794527
 20
2.17945263140488E-06
 11
32
 21
2.17945263140488E-06
  0
POLYLINE
  8
1
 66
1
  0
VERTEX
  8
1
 10
34
 20
4
  0
VERTEX
  8
1
 10
18
 20
4
  0
VERTEX
  8
1
 10
18
 20
-4
  0
VERTEX
  8
1
 10
34
 20
-4
  0
VERTEX
  8
1
 10
34
 20
4
  0
SEQEND
  8
1
  0
LINE
  8
1
 10
4
 20
4
 11
4
 21
2.5
  0
LINE
  8
1
 10
4
 20
-2.5
 11
4
 21
-4
  0
LINE
  8
1
 10
-4.5
 20
-2.5
 11
-4.5
 21
-4
  0
LINE
  8
1
 10
-4.5
 20
4
 11
-4.5
 21
2.5
  0
LINE
  8
1
 10
5.99999575788641
 20
1.99997168725836
 11
5.99999575788641
 21
-2.00002831274164
  0
LINE
  8
1
 10
-5.99999782054735
 20
1.99997810882459
 11
-5.99999782054735
 21
-2.00002189117542
  0
LINE
  8
1
 10
-5.99999782054735
 20
2.17945263140488E-06
 11
6
 21
2.17945263140488E-06
  0
POLYLINE
  8
1
 66
1
  0
VERTEX
  8
1
 10
8
 20
4
  0
VERTEX
  8
1
 10
-8
 20
4
  0
VERTEX
  8
1
 10
-8
 20
-4
  0
VERTEX
  8
1
 10
8
 20
-4
  0
VERTEX
  8
1
 10
8
 20
4
  0
SEQEND
  8
1
  0
LINE
  8
1
 10
-22
 20
4
 11
-22
 21
2.5
  0
LINE
  8
1
 10
-22
 20
-2.5
 11
-22
 21
-4
  0
LINE
  8
1
 10
-30.5
 20
-2.5
 11
-30.5
 21
-4
  0
LINE
  8
1
 10
-30.5
 20
4
 11
-30.5
 21
2.5
  0
LINE
  8
1
 10
-20.0000042421136
 20
1.99997168725836
 11
-20.0000042421136
 21
-2.00002831274164
  0
LINE
  8
1
 10
-31.9999978205474
 20
1.99997810882459
 11
-31.9999978205474
 21
-2.00002189117542
  0
LINE
  8
1
 10
-31.9999978205474
 20
2.17945263140488E-06
 11
-20
 21
2.17945263140488E-06
  0
POLYLINE
  8
1
 66
1
  0
VERTEX
  8
1
 10
-18
 20
4
  0
VERTEX
  8
1
 10
-34
 20
4
  0
VERTEX
  8
1
 10
-34
 20
-4
  0
VERTEX
  8
1
 10
-18
 20
-4
  0
VERTEX
  8
1
 10
-18
 20
4
  0
SEQEND
  8
1
  0
CIRCLE
  8
CONNECTIONS
 10
-37
 20
-12
 40
0
  0
CIRCLE
  8
CONNECTIONS
 10
-15
 20
-12
 40
0
  0
CIRCLE
  8
CONNECTIONS
 10
-26
 20
12
 40
0
  0
CIRCLE
  8
CONNECTIONS
 10
-11
 20
-12
 40
0
  0
CIRCLE
  8
CONNECTIONS
 10
11
 20
-12
 40
0
  0
CIRCLE
  8
CONNECTIONS
 10
0
 20
12
 40
0
  0
CIRCLE
  8
CONNECTIONS
 10
15
 20
-12
 40
0
  0
CIRCLE
  8
CONNECTIONS
 10
37
 20
-12
 40
0
  0
CIRCLE
  8
CONNECTIONS
 10
26
 20
12
 40
0
  0
ENDBLK
  8
0
  0
ENDSEC
  0
SECTION
  2
ENTITIES
  0
INSERT
  8
1
  2
B17329_00991462
 10
41
 20
12
  0
ENDSEC
  0
EOF
