  0
SECTION
  2
HEADER
  9
$LIMMIN
 10
0
 20
0
  9
$LIMMAX
 10
52.5
 20
74.25
  9
$EXTMIN
 10
0
 20
82
  9
$EXTMAX
 10
0
 20
24
  0
ENDSEC
  0
SECTION
  2
TABLES
  0
TABLE
  2
LTYPE
 70
9
  0
LTYPE
  2
CONTINUOUS
 70
64
  3
Solid line
 72
65
 73
0
 40
0
  0
LTYPE
  2
DASHED
 70
64
  3
__ __ __ __ __ __ __ __ __
 72
65
 73
2
 40
0.75
 49
0.5
 49
-0.25
  0
LTYPE
  2
DOT
 70
64
  3
...........................
 72
65
 73
2
 40
0.25
 49
0
 49
-0.25
  0
LTYPE
  2
DASHDOT
 70
64
  3
__ . __ . __ . __ . __ . __ . 
 72
65
 73
4
 40
1
 49
0.5
 49
-0.25
 49
0
 49
-0.25
  0
ENDTAB
  0
TABLE
  2
LAYER
 70
10
  0
LAYER
  2
1
 70
0
 62
7
  6
CONTINUOUS
  0
LAYER
  2
CONNECTIONS
 70
0
 62
-7
  6
CONTINUOUS
  0
ENDTAB
  0
ENDSEC
  0
SECTION
  2
BLOCKS
  0
BLOCK
  8
0
  2
TRICON
 70
0
 10
0
 20
0
  0
POLYLINE
  8
1
 70
1
 66
1
 40
0.5
 41
0.5
  0
VERTEX
  8
1
 10
-0.25
 20
0
 42
1
  0
VERTEX
  8
1
 10
0.25
 20
0
 42
1
  0
SEQEND
  8
1
  0
ENDBLK
  8
0
  0
BLOCK
  8
0
  2
TRICONSMALL
 70
0
 10
0
 20
0
  0
POLYLINE
  8
1
 70
1
 66
1
 40
0.25
 41
0.25
  0
VERTEX
  8
1
 10
-0.125
 20
0
 42
1
  0
VERTEX
  8
1
 10
0.125
 20
0
 42
1
  0
SEQEND
  8
1
  0
ENDBLK
  8
0
  0
BLOCK
  8
0
  2
TRICONCIRCLE
 70
0
 10
0
 20
0
  0
CIRCLE
  8
1
 10
0
 20
0
 40
0.5
  0
ENDBLK
  8
0
  0
BLOCK
  8
0
  2
LCBP0
 70
0
 10
0
 20
0
  0
LINE
  8
1
 10
0
 20
-0.46875
 11
0
 21
0.46875
  0
ENDBLK
  8
0
  0
BLOCK
  8
0
  2
LCBP1
 70
0
 10
0
 20
0
  0
LINE
  8
1
 10
0
 20
-0.625
 11
0
 21
0.625
  0
ENDBLK
  8
0
  0
BLOCK
  8
0
  2
LCBP2
 70
0
 10
0
 20
0
  0
LINE
  8
1
 10
0
 20
-0.9375
 11
0
 21
0.9375
  0
ENDBLK
  8
0
  0
BLOCK
  8
0
  2
LCA1
 70
0
 10
0
 20
0
  0
SOLID
  8
1
 62
7 
 10
0
 20
0
 11
-1.4
 21
-0.275
 12
-1.4
 22
0.275
 13
-1.4
 23
0.275
  0
ENDBLK
  8
0
  0
BLOCK
  8
0
  2
LCA2
 70
0
 10
0
 20
0
  0
SOLID
  8
1
 62
7 
 10
0
 20
0
 11
-1.65
 21
-0.525
 12
-1.65
 22
0.525
 13
-1.65
 23
0.525
  0
ENDBLK
  8
0
  0
BLOCK
  8
0
  2
LCA3
 70
0
 10
0
 20
0
  0
SOLID
  8
1
 62
7 
 10
0
 20
0
 11
-2.15
 21
-1.15
 12
-2.15
 22
1.15
 13
-2.15
 23
1.15
  0
ENDBLK
  8
0
  0
BLOCK
  8
0
  2
LCA1R
 70
0
 10
0
 20
0
  0
SOLID
  8
1
 62
7 
 10
0
 20
0
 11
1.4
 21
-0.275
 12
1.4
 22
0.275
 13
1.4
 23
0.275
  0
ENDBLK
  8
0
  0
BLOCK
  8
0
  2
LCA2R
 70
0
 10
0
 20
0
  0
SOLID
  8
1
 62
7 
 10
0
 20
0
 11
1.65
 21
-0.525
 12
1.65
 22
0.525
 13
1.65
 23
0.525
  0
ENDBLK
  8
0
  0
BLOCK
  8
0
  2
LCA3R
 70
0
 10
0
 20
0
  0
SOLID
  8
1
 62
7 
 10
0
 20
0
 11
2.15
 21
-1.15
 12
2.15
 22
1.15
 13
2.15
 23
1.15
  0
ENDBLK
  8
0
  0
BLOCK
  8
0
  2
B17283_00991457
 70
0
 10
0
 20
0
  0
POLYLINE
  8
1
 66
1
  0
VERTEX
  8
1
 10
-41
 20
8
  0
VERTEX
  8
1
 10
41
 20
8
  0
VERTEX
  8
1
 10
41
 20
-8
  0
VERTEX
  8
1
 10
-41
 20
-8
  0
VERTEX
  8
1
 10
-41
 20
8
  0
SEQEND
  8
1
  0
TEXT
  8
1
 40
2.475
 41
0.75
  1
A3
  7
STANDARD
 72
2
 73
3
 10
26
 20
11.88125
 11
26
 21
11.88125
  0
TEXT
  8
1
 40
2.475
 41
0.75
  1
A2
  7
STANDARD
 72
2
 73
3
 10
0
 20
11.88125
 11
0
 21
11.88125
  0
TEXT
  8
1
 40
2.475
 41
0.75
  1
A1
  7
STANDARD
 72
2
 73
3
 10
-26
 20
11.88125
 11
-26
 21
11.88125
  0
TEXT
  8
1
 40
2.475
 41
0.75
  1
Y3
  7
STANDARD
 72
2
 10
37
 20
-12.2625
 11
37
 21
-12.2625
  0
TEXT
  8
1
 40
2.475
 41
0.75
  1
X3
  7
STANDARD
 10
15
 20
-12.2625
  0
TEXT
  8
1
 40
2.475
 41
0.75
  1
Y2
  7
STANDARD
 72
2
 10
11
 20
-12.2625
 11
11
 21
-12.2625
  0
TEXT
  8
1
 40
2.475
 41
0.75
  1
X2
  7
STANDARD
 10
-11
 20
-12.2625
  0
TEXT
  8
1
 40
2.475
 41
0.75
  1
Y1
  7
STANDARD
 72
2
 10
-15
 20
-12.2625
 11
-15
 21
-12.2625
  0
TEXT
  8
1
 40
2.475
 41
0.75
  1
X1
  7
STANDARD
 10
-37
 20
-12.2625
  0
LINE
  8
1
 10
37
 20
-8
 11
37
 21
-12
  0
LINE
  8
1
 10
26
 20
8
 11
26
 21
12
  0
LINE
  8
1
 10
15
 20
-8
 11
15
 21
-12
  0
LINE
  8
1
 10
11
 20
-8
 11
11
 21
-12
  0
LINE
  8
1
 10
-11
 20
-8
 11
-11
 21
-12
  0
LINE
  8
1
 10
-15
 20
-8
 11
-15
 21
-12
  0
LINE
  8
1
 10
0
 20
8
 11
0
 21
12
  0
LINE
  8
1
 10
-26
 20
8
 11
-26
 21
12
  0
LINE
  8
1
 10
-37
 20
-8
 11
-37
 21
-12
  0
LINE
  8
1
 10
26
 20
4
 11
26
 21
8
  0
LINE
  8
1
 10
0
 20
4
 11
0
 21
8
  0
LINE
  8
1
 10
37
 20
0
 11
37
 21
-8
  0
LINE
  8
1
 10
15
 20
0
 11
15
 21
-8
  0
LINE
  8
1
 10
11
 20
0
 11
11
 21
-8
  0
LINE
  8
1
 10
-11
 20
0
 11
-11
 21
-8
  0
LINE
  8
1
 10
-15
 20
0
 11
-15
 21
-8
  0
LINE
  8
1
 10
-26
 20
4
 11
-26
 21
8
  0
LINE
  8
1
 10
-37
 20
0
 11
-37
 21
-8
  0
LINE
  8
1
 10
34
 20
0
 11
37
 21
0
  0
LINE
  8
1
 10
18
 20
0
 11
15
 21
0
  0
LINE
  8
1
 10
8
 20
0
 11
11
 21
0
  0
LINE
  8
1
 10
-8
 20
0
 11
-11
 21
0
  0
LINE
  8
1
 10
-18
 20
0
 11
-15
 21
0
  0
LINE
  8
1
 10
-34
 20
0
 11
-37
 21
0
  0
LINE
  8
1
 10
26
 20
0.316666666666672
 11
26
 21
8
  0
POLYLINE
  8
1
 70
1
 66
1
 40
0.6
 41
0.6
  0
VERTEX
  8
1
 10
25.6999999999999
 20
2.368475785867E-15
 42
1
  0
VERTEX
  8
1
 10
26.2999999999999
 20
2.368475785867E-15
 42
1
  0
SEQEND
  8
1
  0
LINE
  8
1
 10
17.9999999999999
 20
-7.105427357601E-15
 11
29.5999999999999
 21
-7.105427357601E-15
  0
LINE
  8
1
 10
31.9999999999999
 20
-7.105427357601E-15
 11
33.9999999999999
 21
-7.105427357601E-15
  0
CIRCLE
  8
1
 10
30.5999999999999
 20
-7.105427357601E-15
 40
1
  0
LINE
  8
1
 10
31.9999999999999
 20
-7.105427357601E-15
 11
29.9999999999999
 21
-2
  0
LINE
  8
1
 10
29.9999999999999
 20
1.99999999999999
 11
31.9999999999999
 21
-7.105427357601E-15
  0
LINE
  8
1
 10
19.9999999999999
 20
-7.105427357601E-15
 11
21.9999999999999
 21
-2
  0
LINE
  8
1
 10
21.9999999999999
 20
1.99999999999999
 11
19.9999999999999
 21
-7.105427357601E-15
  0
POLYLINE
  8
1
 66
1
  0
VERTEX
  8
1
 10
18
 20
4
  0
VERTEX
  8
1
 10
34
 20
4
  0
VERTEX
  8
1
 10
34
 20
-4
  0
VERTEX
  8
1
 10
18
 20
-4
  0
VERTEX
  8
1
 10
18
 20
4
  0
SEQEND
  8
1
  0
LINE
  8
1
 10
9.473903143468E-15
 20
0.316666666666672
 11
9.473903143468E-15
 21
8
  0
POLYLINE
  8
1
 70
1
 66
1
 40
0.6
 41
0.6
  0
VERTEX
  8
1
 10
-0.300000000000066
 20
2.368475785867E-15
 42
1
  0
VERTEX
  8
1
 10
0.299999999999934
 20
2.368475785867E-15
 42
1
  0
SEQEND
  8
1
  0
LINE
  8
1
 10
-8.00000000000006
 20
-7.105427357601E-15
 11
3.59999999999993
 21
-7.105427357601E-15
  0
LINE
  8
1
 10
5.99999999999993
 20
-7.105427357601E-15
 11
7.99999999999993
 21
-7.105427357601E-15
  0
CIRCLE
  8
1
 10
4.59999999999995
 20
-7.105427357601E-15
 40
1
  0
LINE
  8
1
 10
5.99999999999993
 20
-7.105427357601E-15
 11
3.99999999999993
 21
-2
  0
LINE
  8
1
 10
3.99999999999993
 20
1.99999999999999
 11
5.99999999999993
 21
-7.105427357601E-15
  0
LINE
  8
1
 10
-6.00000000000006
 20
-7.105427357601E-15
 11
-4.00000000000006
 21
-2
  0
LINE
  8
1
 10
-4.00000000000006
 20
1.99999999999999
 11
-6.00000000000006
 21
-7.105427357601E-15
  0
POLYLINE
  8
1
 66
1
  0
VERTEX
  8
1
 10
-7.99999999999998
 20
4
  0
VERTEX
  8
1
 10
8
 20
4
  0
VERTEX
  8
1
 10
8
 20
-4
  0
VERTEX
  8
1
 10
-7.99999999999998
 20
-4
  0
VERTEX
  8
1
 10
-7.99999999999998
 20
4
  0
SEQEND
  8
1
  0
LINE
  8
1
 10
-26
 20
0.316666666666672
 11
-26
 21
8
  0
POLYLINE
  8
1
 70
1
 66
1
 40
0.6
 41
0.6
  0
VERTEX
  8
1
 10
-26.3000000000001
 20
2.368475785867E-15
 42
1
  0
VERTEX
  8
1
 10
-25.7000000000001
 20
2.368475785867E-15
 42
1
  0
SEQEND
  8
1
  0
LINE
  8
1
 10
-34.0000000000001
 20
-7.105427357601E-15
 11
-22.4000000000001
 21
-7.105427357601E-15
  0
LINE
  8
1
 10
-20.0000000000001
 20
-7.105427357601E-15
 11
-18.0000000000001
 21
-7.105427357601E-15
  0
CIRCLE
  8
1
 10
-21.4000000000001
 20
-7.105427357601E-15
 40
1
  0
LINE
  8
1
 10
-20.0000000000001
 20
-7.105427357601E-15
 11
-22.0000000000001
 21
-2
  0
LINE
  8
1
 10
-22.0000000000001
 20
1.99999999999999
 11
-20.0000000000001
 21
-7.105427357601E-15
  0
LINE
  8
1
 10
-32.0000000000001
 20
-7.105427357601E-15
 11
-30.0000000000001
 21
-2
  0
LINE
  8
1
 10
-30.0000000000001
 20
1.99999999999999
 11
-32.0000000000001
 21
-7.105427357601E-15
  0
POLYLINE
  8
1
 66
1
  0
VERTEX
  8
1
 10
-34
 20
4
  0
VERTEX
  8
1
 10
-18
 20
4
  0
VERTEX
  8
1
 10
-18
 20
-4
  0
VERTEX
  8
1
 10
-34
 20
-4
  0
VERTEX
  8
1
 10
-34
 20
4
  0
SEQEND
  8
1
  0
CIRCLE
  8
CONNECTIONS
 10
-37
 20
-12
 40
0
  0
CIRCLE
  8
CONNECTIONS
 10
-15
 20
-12
 40
0
  0
CIRCLE
  8
CONNECTIONS
 10
-26
 20
12
 40
0
  0
CIRCLE
  8
CONNECTIONS
 10
-11
 20
-12
 40
0
  0
CIRCLE
  8
CONNECTIONS
 10
11
 20
-12
 40
0
  0
CIRCLE
  8
CONNECTIONS
 10
0
 20
12
 40
0
  0
CIRCLE
  8
CONNECTIONS
 10
15
 20
-12
 40
0
  0
CIRCLE
  8
CONNECTIONS
 10
37
 20
-12
 40
0
  0
CIRCLE
  8
CONNECTIONS
 10
26
 20
12
 40
0
  0
ENDBLK
  8
0
  0
ENDSEC
  0
SECTION
  2
ENTITIES
  0
INSERT
  8
1
  2
B17283_00991457
 10
41
 20
12
  0
ENDSEC
  0
EOF
