  0
SECTION
  2
HEADER
  9
$LIMMIN
 10
0
 20
0
  9
$LIMMAX
 10
52.5
 20
74.25
  9
$EXTMIN
 10
0
 20
20
  9
$EXTMAX
 10
0
 20
20.9999860284448
  0
ENDSEC
  0
SECTION
  2
TABLES
  0
TABLE
  2
LTYPE
 70
9
  0
LTYPE
  2
CONTINUOUS
 70
64
  3
Solid line
 72
65
 73
0
 40
0
  0
LTYPE
  2
DASHED
 70
64
  3
__ __ __ __ __ __ __ __ __
 72
65
 73
2
 40
0.75
 49
0.5
 49
-0.25
  0
LTYPE
  2
DOT
 70
64
  3
...........................
 72
65
 73
2
 40
0.25
 49
0
 49
-0.25
  0
LTYPE
  2
DASHDOT
 70
64
  3
__ . __ . __ . __ . __ . __ . 
 72
65
 73
4
 40
1
 49
0.5
 49
-0.25
 49
0
 49
-0.25
  0
ENDTAB
  0
TABLE
  2
LAYER
 70
10
  0
LAYER
  2
1
 70
0
 62
7
  6
CONTINUOUS
  0
LAYER
  2
CONNECTIONS
 70
0
 62
-7
  6
CONTINUOUS
  0
ENDTAB
  0
ENDSEC
  0
SECTION
  2
BLOCKS
  0
BLOCK
  8
0
  2
TRICON
 70
0
 10
0
 20
0
  0
POLYLINE
  8
1
 70
1
 66
1
 40
0.5
 41
0.5
  0
VERTEX
  8
1
 10
-0.25
 20
0
 42
1
  0
VERTEX
  8
1
 10
0.25
 20
0
 42
1
  0
SEQEND
  8
1
  0
ENDBLK
  8
0
  0
BLOCK
  8
0
  2
TRICONSMALL
 70
0
 10
0
 20
0
  0
POLYLINE
  8
1
 70
1
 66
1
 40
0.25
 41
0.25
  0
VERTEX
  8
1
 10
-0.125
 20
0
 42
1
  0
VERTEX
  8
1
 10
0.125
 20
0
 42
1
  0
SEQEND
  8
1
  0
ENDBLK
  8
0
  0
BLOCK
  8
0
  2
TRICONCIRCLE
 70
0
 10
0
 20
0
  0
CIRCLE
  8
1
 10
0
 20
0
 40
0.5
  0
ENDBLK
  8
0
  0
BLOCK
  8
0
  2
LCBP0
 70
0
 10
0
 20
0
  0
LINE
  8
1
 10
0
 20
-0.46875
 11
0
 21
0.46875
  0
ENDBLK
  8
0
  0
BLOCK
  8
0
  2
LCBP1
 70
0
 10
0
 20
0
  0
LINE
  8
1
 10
0
 20
-0.625
 11
0
 21
0.625
  0
ENDBLK
  8
0
  0
BLOCK
  8
0
  2
LCBP2
 70
0
 10
0
 20
0
  0
LINE
  8
1
 10
0
 20
-0.9375
 11
0
 21
0.9375
  0
ENDBLK
  8
0
  0
BLOCK
  8
0
  2
LCA1
 70
0
 10
0
 20
0
  0
SOLID
  8
1
 62
7 
 10
0
 20
0
 11
-1.4
 21
-0.275
 12
-1.4
 22
0.275
 13
-1.4
 23
0.275
  0
ENDBLK
  8
0
  0
BLOCK
  8
0
  2
LCA2
 70
0
 10
0
 20
0
  0
SOLID
  8
1
 62
7 
 10
0
 20
0
 11
-1.65
 21
-0.525
 12
-1.65
 22
0.525
 13
-1.65
 23
0.525
  0
ENDBLK
  8
0
  0
BLOCK
  8
0
  2
LCA3
 70
0
 10
0
 20
0
  0
SOLID
  8
1
 62
7 
 10
0
 20
0
 11
-2.15
 21
-1.15
 12
-2.15
 22
1.15
 13
-2.15
 23
1.15
  0
ENDBLK
  8
0
  0
BLOCK
  8
0
  2
LCA1R
 70
0
 10
0
 20
0
  0
SOLID
  8
1
 62
7 
 10
0
 20
0
 11
1.4
 21
-0.275
 12
1.4
 22
0.275
 13
1.4
 23
0.275
  0
ENDBLK
  8
0
  0
BLOCK
  8
0
  2
LCA2R
 70
0
 10
0
 20
0
  0
SOLID
  8
1
 62
7 
 10
0
 20
0
 11
1.65
 21
-0.525
 12
1.65
 22
0.525
 13
1.65
 23
0.525
  0
ENDBLK
  8
0
  0
BLOCK
  8
0
  2
LCA3R
 70
0
 10
0
 20
0
  0
SOLID
  8
1
 62
7 
 10
0
 20
0
 11
2.15
 21
-1.15
 12
2.15
 22
1.15
 13
2.15
 23
1.15
  0
ENDBLK
  8
0
  0
BLOCK
  8
0
  2
B1922_00991432
 70
0
 10
0
 20
0
  0
LINE
  8
1
 10
-2
 20
-6.15684726371477
 11
-2
 21
-10.4999930142224
  0
LINE
  8
1
 10
6
 20
-0.499993014222393
 11
10
 21
-0.499993014222393
  0
LINE
  8
1
 10
-10
 20
-0.499993014222393
 11
-6
 21
-0.499993014222393
  0
TEXT
  8
1
 40
2.475
 41
0.75
  1
p2
  7
STANDARD
 73
3
 10
-0.5
 20
3.88125698577761
 11
-0.5
 21
3.88125698577761
  0
TEXT
  8
1
 40
2.475
 41
0.75
  1
p1
  7
STANDARD
 73
3
 10
-5
 20
3.88125698577761
 11
-5
 21
3.88125698577761
  0
CIRCLE
  8
1
 10
0
 20
-0.499993014222393
 40
6
  0
LINE
  8
1
 10
0
 20
5.50000698577761
 11
0
 21
-6.49999301422239
  0
LINE
  8
1
 10
4.45198145717821
 20
0.500006985777589
 11
6.18403226474709
 21
-0.499993014222412
  0
LINE
  8
1
 10
4.45198145717821
 20
0.500006985777588
 11
4.45198145717821
 21
-1.49999301422241
  0
LINE
  8
1
 10
4.45198145717821
 20
-1.49999301422241
 11
6.18403226474709
 21
-0.499993014222412
  0
LINE
  8
1
 10
-5.73205080756888
 20
0.500006985777598
 11
-4
 21
-0.499993014222402
  0
LINE
  8
1
 10
-5.73205080756888
 20
-1.4999930142224
 11
-4
 21
-0.499993014222402
  0
LINE
  8
1
 10
-5.73205080756888
 20
0.500006985777598
 11
-5.73205080756888
 21
-1.4999930142224
  0
POLYLINE
  8
1
 66
1
  0
VERTEX
  8
1
 10
-5.04783425299137E-05
 20
5.49999301422238
  0
VERTEX
  8
1
 10
1.99994952165747
 20
5.91665968088906
  0
VERTEX
  8
1
 10
-2.00005047834253
 20
6.74999301422239
  0
VERTEX
  8
1
 10
1.99994952165747
 20
7.58332634755572
  0
VERTEX
  8
1
 10
-2.00005047834253
 20
8.41665968088906
  0
VERTEX
  8
1
 10
1.99994952165747
 20
9.24999301422239
  0
VERTEX
  8
1
 10
-2.00005047834253
 20
10.0833263475557
  0
VERTEX
  8
1
 10
-5.04783425299137E-05
 20
10.4999930142224
  0
SEQEND
  8
1
  0
LINE
  8
1
 10
-4.44278620899359
 20
6.77031857454481
 11
4.44268525230853
 21
9.22966745389997
  0
INSERT
  8
1
  2
LCA1
 10
4.44268525230853
 20
9.22966745389997
 50
15.4711922908485
  0
CIRCLE
  8
CONNECTIONS
 10
-10
 20
-0.499993014222393
 40
0
  0
CIRCLE
  8
CONNECTIONS
 10
-2
 20
-10.4999930142224
 40
0
  0
CIRCLE
  8
CONNECTIONS
 10
10
 20
-0.499993014222393
 40
0
  0
ENDBLK
  8
0
  0
ENDSEC
  0
SECTION
  2
ENTITIES
  0
INSERT
  8
1
  2
B1922_00991432
 10
10
 20
10.4999930142224
  0
ENDSEC
  0
EOF
