  0
SECTION
  2
HEADER
  9
$LIMMIN
 10
0
 20
0
  9
$LIMMAX
 10
52.5
 20
74.25
  9
$EXTMIN
 10
0
 20
55.1428508940375
  9
$EXTMAX
 10
0
 20
16
  0
ENDSEC
  0
SECTION
  2
TABLES
  0
TABLE
  2
LTYPE
 70
9
  0
LTYPE
  2
CONTINUOUS
 70
64
  3
Solid line
 72
65
 73
0
 40
0
  0
LTYPE
  2
DASHED
 70
64
  3
__ __ __ __ __ __ __ __ __
 72
65
 73
2
 40
0.75
 49
0.5
 49
-0.25
  0
LTYPE
  2
DOT
 70
64
  3
...........................
 72
65
 73
2
 40
0.25
 49
0
 49
-0.25
  0
LTYPE
  2
DASHDOT
 70
64
  3
__ . __ . __ . __ . __ . __ . 
 72
65
 73
4
 40
1
 49
0.5
 49
-0.25
 49
0
 49
-0.25
  0
ENDTAB
  0
TABLE
  2
LAYER
 70
10
  0
LAYER
  2
1
 70
0
 62
7
  6
CONTINUOUS
  0
LAYER
  2
CONNECTIONS
 70
0
 62
-7
  6
CONTINUOUS
  0
ENDTAB
  0
ENDSEC
  0
SECTION
  2
BLOCKS
  0
BLOCK
  8
0
  2
TRICON
 70
0
 10
0
 20
0
  0
POLYLINE
  8
1
 70
1
 66
1
 40
0.5
 41
0.5
  0
VERTEX
  8
1
 10
-0.25
 20
0
 42
1
  0
VERTEX
  8
1
 10
0.25
 20
0
 42
1
  0
SEQEND
  8
1
  0
ENDBLK
  8
0
  0
BLOCK
  8
0
  2
TRICONSMALL
 70
0
 10
0
 20
0
  0
POLYLINE
  8
1
 70
1
 66
1
 40
0.25
 41
0.25
  0
VERTEX
  8
1
 10
-0.125
 20
0
 42
1
  0
VERTEX
  8
1
 10
0.125
 20
0
 42
1
  0
SEQEND
  8
1
  0
ENDBLK
  8
0
  0
BLOCK
  8
0
  2
TRICONCIRCLE
 70
0
 10
0
 20
0
  0
CIRCLE
  8
1
 10
0
 20
0
 40
0.5
  0
ENDBLK
  8
0
  0
BLOCK
  8
0
  2
LCBP0
 70
0
 10
0
 20
0
  0
LINE
  8
1
 10
0
 20
-0.46875
 11
0
 21
0.46875
  0
ENDBLK
  8
0
  0
BLOCK
  8
0
  2
LCBP1
 70
0
 10
0
 20
0
  0
LINE
  8
1
 10
0
 20
-0.625
 11
0
 21
0.625
  0
ENDBLK
  8
0
  0
BLOCK
  8
0
  2
LCBP2
 70
0
 10
0
 20
0
  0
LINE
  8
1
 10
0
 20
-0.9375
 11
0
 21
0.9375
  0
ENDBLK
  8
0
  0
BLOCK
  8
0
  2
LCA1
 70
0
 10
0
 20
0
  0
SOLID
  8
1
 62
7 
 10
0
 20
0
 11
-1.4
 21
-0.275
 12
-1.4
 22
0.275
 13
-1.4
 23
0.275
  0
ENDBLK
  8
0
  0
BLOCK
  8
0
  2
LCA2
 70
0
 10
0
 20
0
  0
SOLID
  8
1
 62
7 
 10
0
 20
0
 11
-1.65
 21
-0.525
 12
-1.65
 22
0.525
 13
-1.65
 23
0.525
  0
ENDBLK
  8
0
  0
BLOCK
  8
0
  2
LCA3
 70
0
 10
0
 20
0
  0
SOLID
  8
1
 62
7 
 10
0
 20
0
 11
-2.15
 21
-1.15
 12
-2.15
 22
1.15
 13
-2.15
 23
1.15
  0
ENDBLK
  8
0
  0
BLOCK
  8
0
  2
LCA1R
 70
0
 10
0
 20
0
  0
SOLID
  8
1
 62
7 
 10
0
 20
0
 11
1.4
 21
-0.275
 12
1.4
 22
0.275
 13
1.4
 23
0.275
  0
ENDBLK
  8
0
  0
BLOCK
  8
0
  2
LCA2R
 70
0
 10
0
 20
0
  0
SOLID
  8
1
 62
7 
 10
0
 20
0
 11
1.65
 21
-0.525
 12
1.65
 22
0.525
 13
1.65
 23
0.525
  0
ENDBLK
  8
0
  0
BLOCK
  8
0
  2
LCA3R
 70
0
 10
0
 20
0
  0
SOLID
  8
1
 62
7 
 10
0
 20
0
 11
2.15
 21
-1.15
 12
2.15
 22
1.15
 13
2.15
 23
1.15
  0
ENDBLK
  8
0
  0
BLOCK
  8
0
  2
B199754_00991400
 70
0
 10
0
 20
0
  0
TEXT
  8
1
 40
2.4
 41
0.75
  1
14
  7
STANDARD
 72
2
 73
3
 10
-19.0962313879015
 20
3.46457607433217
 11
-19.0962313879015
 21
3.46457607433217
  0
TEXT
  8
1
 40
2.4
 41
0.75
  1
1
  7
STANDARD
 72
2
 10
5.15403595879851
 20
-8.08686821700944
 11
5.15403595879851
 21
-8.08686821700944
  0
TEXT
  8
1
 40
2.4
 41
0.75
  1
3
  7
STANDARD
 10
9.17142544701873
 20
-8.1
  0
TEXT
  8
1
 40
2.4
 41
0.75
  1
5
  7
STANDARD
 72
2
 10
0.336646470578307
 20
-8
 11
0.336646470578307
 21
-8
  0
TEXT
  8
1
 40
2.4
 41
0.75
  1
2
  7
STANDARD
 72
2
 10
8.43664710636119
 20
5.2
 11
8.43664710636119
 21
5.2
  0
TEXT
  8
1
 40
2.4
 41
0.75
  1
4
  7
STANDARD
 72
2
 10
0.236647106361185
 20
5.2
 11
0.236647106361185
 21
5.2
  0
LINE
  8
1
 10
0.571425447018735
 20
-4
 11
0.571425447018735
 21
-8
  0
LINE
  8
1
 10
4.57142544701873
 20
-4
 11
4.57142544701873
 21
-8
  0
LINE
  8
1
 10
0.571425447018735
 20
8
 11
0.571425447018735
 21
4
  0
LINE
  8
1
 10
8.57142544701873
 20
8
 11
8.57142544701873
 21
4
  0
LINE
  8
1
 10
8.57142544701873
 20
-4
 11
8.57142544701873
 21
-8
  0
LINE
  8
1
 10
-13.4285745529813
 20
8
 11
-13.4285745529813
 21
4
  0
CIRCLE
  8
1
 10
-26.5714254470187
 20
2.99997812913114
 40
1
  0
LINE
  8
1
 10
-24.5714254470187
 20
-4.00002187086886
 11
-26.2967043191267
 21
2.03845418150907
  0
LINE
  8
1
 10
-19.4285745529813
 20
-3
 11
-24.8571522303901
 21
-3
  0
LINE
  8
1
 10
-25.4285745529813
 20
-1
 11
-19.4285745529813
 21
-1
  0
POLYLINE
  8
1
 66
1
  0
VERTEX
  8
1
 10
27.5714254470187
 20
-2
  0
VERTEX
  8
1
 10
27.1547587803519
 20
-4
  0
VERTEX
  8
1
 10
26.3214254470187
 20
0
  0
VERTEX
  8
1
 10
25.4880921136854
 20
-4
  0
VERTEX
  8
1
 10
24.654758780352
 20
0
  0
VERTEX
  8
1
 10
23.8214254470187
 20
-4
  0
VERTEX
  8
1
 10
22.9880921136854
 20
0
  0
VERTEX
  8
1
 10
22.5714254470187
 20
-2
  0
SEQEND
  8
1
  0
POLYLINE
  8
1
 66
1
  0
VERTEX
  8
1
 10
-18.4285745529813
 20
6
  0
VERTEX
  8
1
 10
-18.0119078863146
 20
4
  0
VERTEX
  8
1
 10
-17.1785745529813
 20
8
  0
VERTEX
  8
1
 10
-16.3452412196479
 20
4
  0
VERTEX
  8
1
 10
-15.5119078863146
 20
8
  0
VERTEX
  8
1
 10
-14.6785745529813
 20
4
  0
VERTEX
  8
1
 10
-13.8452412196479
 20
8
  0
VERTEX
  8
1
 10
-13.4285745529813
 20
6
  0
SEQEND
  8
1
  0
POLYLINE
  8
1
 66
1
  0
VERTEX
  8
1
 10
-19.4285745529813
 20
0
  0
VERTEX
  8
1
 10
-13.4285745529813
 20
0
  0
VERTEX
  8
1
 10
-13.4285745529813
 20
-4
  0
VERTEX
  8
1
 10
-19.4285745529813
 20
-4
  0
VERTEX
  8
1
 10
-19.4285745529813
 20
0
  0
SEQEND
  8
1
  0
LINE
  8
1
 10
-19.4285745529813
 20
0
 11
-15.9644729378435
 21
-2
  0
LINE
  8
1
 10
-19.4285745529813
 20
-4
 11
-15.9644729378435
 21
-2
  0
LINE
  8
1
 10
0.571425447018735
 20
4
 11
0.571425447018735
 21
2
  0
INSERT
  8
1
  2
LCBP1
 10
0.571425447018735
 20
2
 50
-90
  0
LINE
  8
1
 10
8.57142544701873
 20
4
 11
8.57142544701873
 21
2
  0
INSERT
  8
1
  2
LCBP1
 10
8.57142544701873
 20
2
 50
-90
  0
LINE
  8
1
 10
8.57142544701873
 20
-4
 11
8.57142544701873
 21
-2
  0
INSERT
  8
1
  2
LCBP1
 10
8.57142544701873
 20
-2
 50
90
  0
LINE
  8
1
 10
4.57142544701873
 20
-4
 11
4.57142544701873
 21
-2
  0
INSERT
  8
1
  2
LCBP1
 10
4.57142544701873
 20
-2
 50
90
  0
LINE
  8
1
 10
0.571425447018735
 20
-4
 11
0.571425447018735
 21
-2
  0
INSERT
  8
1
  2
LCBP1
 10
0.571425447018735
 20
-2
 50
90
  0
POLYLINE
  8
1
 66
1
  0
VERTEX
  8
1
 10
-1.42857455298126
 20
4
  0
VERTEX
  8
1
 10
10.5714254470187
 20
4
  0
VERTEX
  8
1
 10
10.5714254470187
 20
-4
  0
VERTEX
  8
1
 10
-1.42857455298126
 20
-4
  0
VERTEX
  8
1
 10
-1.42857455298126
 20
4
  0
SEQEND
  8
1
  0
LINE
  8
1
 10
-11.4285745529813
 20
-4
 11
-11.4285745529813
 21
-2
  0
INSERT
  8
1
  2
LCBP1
 10
-11.4285745529813
 20
-2
 50
90
  0
POLYLINE
  8
1
 66
1
  0
VERTEX
  8
1
 10
-13.4285745529813
 20
4
  0
VERTEX
  8
1
 10
-1.42857455298126
 20
4
  0
VERTEX
  8
1
 10
-1.42857455298126
 20
-4
  0
VERTEX
  8
1
 10
-13.4285745529813
 20
-4
  0
VERTEX
  8
1
 10
-13.4285745529813
 20
4
  0
SEQEND
  8
1
  0
LINE
  8
1
 10
-3.42857455298126
 20
4
 11
-3.42857455298126
 21
-4
  0
INSERT
  8
1
  2
LCA1
 10
-3.42857455298126
 20
-4
 50
-90
  0
LINE
  8
1
 10
-7.42857455298126
 20
-4
 11
-11.4285745529813
 21
4
  0
INSERT
  8
1
  2
LCA1
 10
-11.4285745529813
 20
4
 50
116.565051177078
  0
LINE
  8
1
 10
20.5714254470187
 20
-4
 11
20.5714254470187
 21
-2
  0
INSERT
  8
1
  2
LCBP0
 10
20.5714254470187
 20
-2
 50
90
  0
POLYLINE
  8
1
 66
1
  0
VERTEX
  8
1
 10
10.5714254470187
 20
4
  0
VERTEX
  8
1
 10
22.5714254470187
 20
4
  0
VERTEX
  8
1
 10
22.5714254470187
 20
-4
  0
VERTEX
  8
1
 10
10.5714254470187
 20
-4
  0
VERTEX
  8
1
 10
10.5714254470187
 20
4
  0
SEQEND
  8
1
  0
LINE
  8
1
 10
12.5714254470187
 20
4
 11
12.5714254470187
 21
-4
  0
INSERT
  8
1
  2
LCA1
 10
12.5714254470187
 20
-4
 50
-90
  0
LINE
  8
1
 10
16.5714254470187
 20
-4
 11
20.5714254470187
 21
4
  0
INSERT
  8
1
  2
LCA1
 10
20.5714254470187
 20
4
 50
63.434948822922
  0
CIRCLE
  8
CONNECTIONS
 10
8.57142544701873
 20
8
 40
0
  0
CIRCLE
  8
CONNECTIONS
 10
0.571425447018735
 20
8
 40
0
  0
CIRCLE
  8
CONNECTIONS
 10
4.57142544701873
 20
-8
 40
0
  0
CIRCLE
  8
CONNECTIONS
 10
0.571425447018735
 20
-8
 40
0
  0
CIRCLE
  8
CONNECTIONS
 10
8.57142544701873
 20
-8
 40
0
  0
ENDBLK
  8
0
  0
ENDSEC
  0
SECTION
  2
ENTITIES
  0
INSERT
  8
1
  2
B199754_00991400
 10
27.5714254470187
 20
8
  0
ENDSEC
  0
EOF
