  0
SECTION
  2
HEADER
  9
$LIMMIN
 10
0
 20
0
  9
$LIMMAX
 10
52.5
 20
74.25
  9
$EXTMIN
 10
0
 20
37.1428590534652
  9
$EXTMAX
 10
0
 20
16
  0
ENDSEC
  0
SECTION
  2
TABLES
  0
TABLE
  2
LTYPE
 70
9
  0
LTYPE
  2
CONTINUOUS
 70
64
  3
Solid line
 72
65
 73
0
 40
0
  0
LTYPE
  2
DASHED
 70
64
  3
__ __ __ __ __ __ __ __ __
 72
65
 73
2
 40
0.75
 49
0.5
 49
-0.25
  0
LTYPE
  2
DOT
 70
64
  3
...........................
 72
65
 73
2
 40
0.25
 49
0
 49
-0.25
  0
LTYPE
  2
DASHDOT
 70
64
  3
__ . __ . __ . __ . __ . __ . 
 72
65
 73
4
 40
1
 49
0.5
 49
-0.25
 49
0
 49
-0.25
  0
ENDTAB
  0
TABLE
  2
LAYER
 70
10
  0
LAYER
  2
1
 70
0
 62
7
  6
CONTINUOUS
  0
LAYER
  2
CONNECTIONS
 70
0
 62
-7
  6
CONTINUOUS
  0
ENDTAB
  0
ENDSEC
  0
SECTION
  2
BLOCKS
  0
BLOCK
  8
0
  2
TRICON
 70
0
 10
0
 20
0
  0
POLYLINE
  8
1
 70
1
 66
1
 40
0.5
 41
0.5
  0
VERTEX
  8
1
 10
-0.25
 20
0
 42
1
  0
VERTEX
  8
1
 10
0.25
 20
0
 42
1
  0
SEQEND
  8
1
  0
ENDBLK
  8
0
  0
BLOCK
  8
0
  2
TRICONSMALL
 70
0
 10
0
 20
0
  0
POLYLINE
  8
1
 70
1
 66
1
 40
0.25
 41
0.25
  0
VERTEX
  8
1
 10
-0.125
 20
0
 42
1
  0
VERTEX
  8
1
 10
0.125
 20
0
 42
1
  0
SEQEND
  8
1
  0
ENDBLK
  8
0
  0
BLOCK
  8
0
  2
TRICONCIRCLE
 70
0
 10
0
 20
0
  0
CIRCLE
  8
1
 10
0
 20
0
 40
0.5
  0
ENDBLK
  8
0
  0
BLOCK
  8
0
  2
LCBP0
 70
0
 10
0
 20
0
  0
LINE
  8
1
 10
0
 20
-0.46875
 11
0
 21
0.46875
  0
ENDBLK
  8
0
  0
BLOCK
  8
0
  2
LCBP1
 70
0
 10
0
 20
0
  0
LINE
  8
1
 10
0
 20
-0.625
 11
0
 21
0.625
  0
ENDBLK
  8
0
  0
BLOCK
  8
0
  2
LCBP2
 70
0
 10
0
 20
0
  0
LINE
  8
1
 10
0
 20
-0.9375
 11
0
 21
0.9375
  0
ENDBLK
  8
0
  0
BLOCK
  8
0
  2
LCA1
 70
0
 10
0
 20
0
  0
SOLID
  8
1
 62
7 
 10
0
 20
0
 11
-1.4
 21
-0.275
 12
-1.4
 22
0.275
 13
-1.4
 23
0.275
  0
ENDBLK
  8
0
  0
BLOCK
  8
0
  2
LCA2
 70
0
 10
0
 20
0
  0
SOLID
  8
1
 62
7 
 10
0
 20
0
 11
-1.65
 21
-0.525
 12
-1.65
 22
0.525
 13
-1.65
 23
0.525
  0
ENDBLK
  8
0
  0
BLOCK
  8
0
  2
LCA3
 70
0
 10
0
 20
0
  0
SOLID
  8
1
 62
7 
 10
0
 20
0
 11
-2.15
 21
-1.15
 12
-2.15
 22
1.15
 13
-2.15
 23
1.15
  0
ENDBLK
  8
0
  0
BLOCK
  8
0
  2
LCA1R
 70
0
 10
0
 20
0
  0
SOLID
  8
1
 62
7 
 10
0
 20
0
 11
1.4
 21
-0.275
 12
1.4
 22
0.275
 13
1.4
 23
0.275
  0
ENDBLK
  8
0
  0
BLOCK
  8
0
  2
LCA2R
 70
0
 10
0
 20
0
  0
SOLID
  8
1
 62
7 
 10
0
 20
0
 11
1.65
 21
-0.525
 12
1.65
 22
0.525
 13
1.65
 23
0.525
  0
ENDBLK
  8
0
  0
BLOCK
  8
0
  2
LCA3R
 70
0
 10
0
 20
0
  0
SOLID
  8
1
 62
7 
 10
0
 20
0
 11
2.15
 21
-1.15
 12
2.15
 22
1.15
 13
2.15
 23
1.15
  0
ENDBLK
  8
0
  0
BLOCK
  8
0
  2
B129745_00991329
 70
0
 10
0
 20
0
  0
TEXT
  8
1
 40
2.475
 41
0.75
  1
1
  7
STANDARD
 72
2
 73
2
 10
-0.563348813924934
 20
-6.62776676813761
 11
-0.563348813924934
 21
-6.62776676813761
  0
TEXT
  8
1
 40
2.475
 41
0.75
  1
3
  7
STANDARD
 73
2
 10
3.70620786739017
 20
-6.62776676813761
 11
3.70620786739017
 21
-6.62776676813761
  0
TEXT
  8
1
 40
2.475
 41
0.75
  1
4
  7
STANDARD
 72
2
 10
-0.563348813924934
 20
5.2375
 11
-0.563348813924934
 21
5.2375
  0
TEXT
  8
1
 40
2.475
 41
0.75
  1
2
  7
STANDARD
 10
3.70620786739017
 20
5.23750063578288
  0
LINE
  8
1
 10
3.57142952673262
 20
8
 11
3.57142952673262
 21
4
  0
LINE
  8
1
 10
-0.428570473267383
 20
-4
 11
-0.428570473267383
 21
-8
  0
LINE
  8
1
 10
-0.428570473267383
 20
8
 11
-0.428570473267383
 21
4
  0
LINE
  8
1
 10
3.57142952673262
 20
-4
 11
3.57142952673262
 21
-8
  0
LINE
  8
1
 10
-10.4285704732674
 20
4
 11
-10.4285704732674
 21
8
  0
CIRCLE
  8
1
 10
-17.5714295267326
 20
3.00002746461428
 40
1
  0
LINE
  8
1
 10
-15.5714295267326
 20
-3.99997253538572
 11
-17.2967083988406
 21
2.03850351699221
  0
LINE
  8
1
 10
-10.4285704732674
 20
-3
 11
-15.8571281183994
 21
-3
  0
LINE
  8
1
 10
-13.4285704732674
 20
0
 11
-13.4285704732674
 21
2
  0
LINE
  8
1
 10
-14.6785704732674
 20
-1
 11
-16.4285645368428
 21
-1
  0
LINE
  8
1
 10
-10.4285704732674
 20
-1
 11
-12.1785704732674
 21
-1
  0
POLYLINE
  8
1
 66
1
  0
VERTEX
  8
1
 10
-14.6785704732674
 20
-1
  0
VERTEX
  8
1
 10
-14.1785704732674
 20
-1
  0
VERTEX
  8
1
 10
-13.4285704732674
 20
-2.29903810567665
  0
VERTEX
  8
1
 10
-12.6785704732674
 20
-1
  0
VERTEX
  8
1
 10
-12.1785704732674
 20
-1
  0
SEQEND
  8
1
  0
POLYLINE
  8
1
 66
1
  0
VERTEX
  8
1
 10
18.5714295267326
 20
-2
  0
VERTEX
  8
1
 10
18.1547628600659
 20
-4
  0
VERTEX
  8
1
 10
17.3214295267326
 20
0
  0
VERTEX
  8
1
 10
16.4880961933993
 20
-4
  0
VERTEX
  8
1
 10
15.654762860066
 20
0
  0
VERTEX
  8
1
 10
14.8214295267326
 20
-4
  0
VERTEX
  8
1
 10
13.9880961933993
 20
0
  0
VERTEX
  8
1
 10
13.5714295267326
 20
-2
  0
SEQEND
  8
1
  0
POLYLINE
  8
1
 66
1
  0
VERTEX
  8
1
 10
-15.4285704732674
 20
6
  0
VERTEX
  8
1
 10
-15.0119038066007
 20
4
  0
VERTEX
  8
1
 10
-14.1785704732674
 20
8
  0
VERTEX
  8
1
 10
-13.3452371399341
 20
4
  0
VERTEX
  8
1
 10
-12.5119038066007
 20
8
  0
VERTEX
  8
1
 10
-11.6785704732674
 20
4
  0
VERTEX
  8
1
 10
-10.845237139934
 20
8
  0
VERTEX
  8
1
 10
-10.4285704732674
 20
6
  0
SEQEND
  8
1
  0
LINE
  8
1
 10
3.57142952673262
 20
4
 11
3.57142952673262
 21
-4
  0
INSERT
  8
1
  2
LCA1
 10
3.57142952673262
 20
-4
 50
-90
  0
LINE
  8
1
 10
-0.428570473267383
 20
0
 11
3.57142952673262
 21
0
  0
LINE
  8
1
 10
-0.428570473267383
 20
4
 11
-0.428570473267383
 21
0
  0
POLYLINE
  8
1
 70
1
 66
1
 40
0.5
 41
0.5
  0
VERTEX
  8
1
 10
3.32142952673262
 20
0
 42
1
  0
VERTEX
  8
1
 10
3.82142952673262
 20
0
 42
1
  0
SEQEND
  8
1
  0
LINE
  8
1
 10
-0.428570473267383
 20
-4
 11
-0.428570473267383
 21
-2
  0
INSERT
  8
1
  2
LCBP1
 10
-0.428570473267383
 20
-2
 50
90
  0
POLYLINE
  8
1
 66
1
  0
VERTEX
  8
1
 10
-2.42857047326738
 20
4
  0
VERTEX
  8
1
 10
5.57142952673262
 20
4
  0
VERTEX
  8
1
 10
5.57142952673262
 20
-4
  0
VERTEX
  8
1
 10
-2.42857047326738
 20
-4
  0
VERTEX
  8
1
 10
-2.42857047326738
 20
4
  0
SEQEND
  8
1
  0
POLYLINE
  8
1
 66
1
  0
VERTEX
  8
1
 10
5.57142952673262
 20
4
  0
VERTEX
  8
1
 10
13.5714295267326
 20
4
  0
VERTEX
  8
1
 10
13.5714295267326
 20
-4
  0
VERTEX
  8
1
 10
5.57142952673262
 20
-4
  0
VERTEX
  8
1
 10
5.57142952673262
 20
4
  0
SEQEND
  8
1
  0
LINE
  8
1
 10
7.57142952673262
 20
-4
 11
11.5714295267326
 21
4
  0
INSERT
  8
1
  2
LCA1
 10
11.5714295267326
 20
4
 50
63.434948822922
  0
LINE
  8
1
 10
7.57142952673262
 20
4
 11
11.5714295267326
 21
-4
  0
INSERT
  8
1
  2
LCA1
 10
11.5714295267326
 20
-4
 50
-63.434948822922
  0
POLYLINE
  8
1
 66
1
  0
VERTEX
  8
1
 10
-10.4285704732674
 20
4
  0
VERTEX
  8
1
 10
-2.42857047326738
 20
4
  0
VERTEX
  8
1
 10
-2.42857047326738
 20
-4
  0
VERTEX
  8
1
 10
-10.4285704732674
 20
-4
  0
VERTEX
  8
1
 10
-10.4285704732674
 20
4
  0
SEQEND
  8
1
  0
LINE
  8
1
 10
-4.42857047326738
 20
4
 11
-4.42857047326738
 21
-4
  0
INSERT
  8
1
  2
LCA1
 10
-4.42857047326738
 20
-4
 50
-90
  0
LINE
  8
1
 10
-8.42857047326738
 20
-4
 11
-8.42857047326738
 21
4
  0
INSERT
  8
1
  2
LCA1
 10
-8.42857047326738
 20
4
 50
90
  0
CIRCLE
  8
CONNECTIONS
 10
-0.428570473267383
 20
8
 40
0
  0
CIRCLE
  8
CONNECTIONS
 10
3.57142952673262
 20
8
 40
0
  0
CIRCLE
  8
CONNECTIONS
 10
-0.428570473267383
 20
-8
 40
0
  0
CIRCLE
  8
CONNECTIONS
 10
3.57142952673262
 20
-8
 40
0
  0
ENDBLK
  8
0
  0
ENDSEC
  0
SECTION
  2
ENTITIES
  0
INSERT
  8
1
  2
B129745_00991329
 10
18.5714295267326
 20
8
  0
ENDSEC
  0
EOF
