  0
SECTION
  2
HEADER
  9
$LIMMIN
 10
0
 20
0
  9
$LIMMAX
 10
52.5
 20
74.25
  9
$EXTMIN
 10
0
 20
88
  9
$EXTMAX
 10
0
 20
28
  0
ENDSEC
  0
SECTION
  2
TABLES
  0
TABLE
  2
LTYPE
 70
9
  0
LTYPE
  2
CONTINUOUS
 70
64
  3
Solid line
 72
65
 73
0
 40
0
  0
LTYPE
  2
DASHED
 70
64
  3
__ __ __ __ __ __ __ __ __
 72
65
 73
2
 40
0.75
 49
0.5
 49
-0.25
  0
LTYPE
  2
DOT
 70
64
  3
...........................
 72
65
 73
2
 40
0.25
 49
0
 49
-0.25
  0
LTYPE
  2
DASHDOT
 70
64
  3
__ . __ . __ . __ . __ . __ . 
 72
65
 73
4
 40
1
 49
0.5
 49
-0.25
 49
0
 49
-0.25
  0
ENDTAB
  0
TABLE
  2
LAYER
 70
10
  0
LAYER
  2
1
 70
0
 62
7
  6
CONTINUOUS
  0
LAYER
  2
CONNECTIONS
 70
0
 62
-7
  6
CONTINUOUS
  0
ENDTAB
  0
ENDSEC
  0
SECTION
  2
BLOCKS
  0
BLOCK
  8
0
  2
TRICON
 70
0
 10
0
 20
0
  0
POLYLINE
  8
1
 70
1
 66
1
 40
0.5
 41
0.5
  0
VERTEX
  8
1
 10
-0.25
 20
0
 42
1
  0
VERTEX
  8
1
 10
0.25
 20
0
 42
1
  0
SEQEND
  8
1
  0
ENDBLK
  8
0
  0
BLOCK
  8
0
  2
TRICONSMALL
 70
0
 10
0
 20
0
  0
POLYLINE
  8
1
 70
1
 66
1
 40
0.25
 41
0.25
  0
VERTEX
  8
1
 10
-0.125
 20
0
 42
1
  0
VERTEX
  8
1
 10
0.125
 20
0
 42
1
  0
SEQEND
  8
1
  0
ENDBLK
  8
0
  0
BLOCK
  8
0
  2
TRICONCIRCLE
 70
0
 10
0
 20
0
  0
CIRCLE
  8
1
 10
0
 20
0
 40
0.5
  0
ENDBLK
  8
0
  0
BLOCK
  8
0
  2
LCBP0
 70
0
 10
0
 20
0
  0
LINE
  8
1
 10
0
 20
-0.46875
 11
0
 21
0.46875
  0
ENDBLK
  8
0
  0
BLOCK
  8
0
  2
LCBP1
 70
0
 10
0
 20
0
  0
LINE
  8
1
 10
0
 20
-0.625
 11
0
 21
0.625
  0
ENDBLK
  8
0
  0
BLOCK
  8
0
  2
LCBP2
 70
0
 10
0
 20
0
  0
LINE
  8
1
 10
0
 20
-0.9375
 11
0
 21
0.9375
  0
ENDBLK
  8
0
  0
BLOCK
  8
0
  2
LCA1
 70
0
 10
0
 20
0
  0
SOLID
  8
1
 62
7 
 10
0
 20
0
 11
-1.4
 21
-0.275
 12
-1.4
 22
0.275
 13
-1.4
 23
0.275
  0
ENDBLK
  8
0
  0
BLOCK
  8
0
  2
LCA2
 70
0
 10
0
 20
0
  0
SOLID
  8
1
 62
7 
 10
0
 20
0
 11
-1.65
 21
-0.525
 12
-1.65
 22
0.525
 13
-1.65
 23
0.525
  0
ENDBLK
  8
0
  0
BLOCK
  8
0
  2
LCA3
 70
0
 10
0
 20
0
  0
SOLID
  8
1
 62
7 
 10
0
 20
0
 11
-2.15
 21
-1.15
 12
-2.15
 22
1.15
 13
-2.15
 23
1.15
  0
ENDBLK
  8
0
  0
BLOCK
  8
0
  2
LCA1R
 70
0
 10
0
 20
0
  0
SOLID
  8
1
 62
7 
 10
0
 20
0
 11
1.4
 21
-0.275
 12
1.4
 22
0.275
 13
1.4
 23
0.275
  0
ENDBLK
  8
0
  0
BLOCK
  8
0
  2
LCA2R
 70
0
 10
0
 20
0
  0
SOLID
  8
1
 62
7 
 10
0
 20
0
 11
1.65
 21
-0.525
 12
1.65
 22
0.525
 13
1.65
 23
0.525
  0
ENDBLK
  8
0
  0
BLOCK
  8
0
  2
LCA3R
 70
0
 10
0
 20
0
  0
SOLID
  8
1
 62
7 
 10
0
 20
0
 11
2.15
 21
-1.15
 12
2.15
 22
1.15
 13
2.15
 23
1.15
  0
ENDBLK
  8
0
  0
BLOCK
  8
0
  2
B131988_00991307
 70
0
 10
0
 20
0
  0
POLYLINE
  8
1
 66
1
  0
VERTEX
  8
1
 10
-44
 20
10
  0
VERTEX
  8
1
 10
44
 20
10
  0
VERTEX
  8
1
 10
44
 20
-10
  0
VERTEX
  8
1
 10
-44
 20
-10
  0
VERTEX
  8
1
 10
-44
 20
10
  0
SEQEND
  8
1
  0
LINE
  8
1
 10
28
 20
-10
 11
28
 21
-14
  0
LINE
  8
1
 10
24
 20
-10
 11
24
 21
-14
  0
LINE
  8
1
 10
20
 20
-10
 11
20
 21
-14
  0
LINE
  8
1
 10
28
 20
10
 11
28
 21
14
  0
LINE
  8
1
 10
20
 20
10
 11
20
 21
14
  0
TEXT
  8
1
 40
2.475
 41
0.75
  1
3
  7
STANDARD
 73
3
 10
28.6347789764404
 20
-11.61875
 11
28.6347789764404
 21
-11.61875
  0
TEXT
  8
1
 40
2.475
 41
0.75
  1
5
  7
STANDARD
 72
2
 73
3
 10
19.5
 20
-11.374284807841
 11
19.5
 21
-11.374284807841
  0
TEXT
  8
1
 40
2.475
 41
0.75
  1
1
  7
STANDARD
 72
2
 73
3
 10
24
 20
-11.5580449845097
 11
24
 21
-11.5580449845097
  0
TEXT
  8
1
 40
2.475
 41
0.75
  1
2
  7
STANDARD
 72
2
 10
27.5
 20
10.993034807841
 11
27.5
 21
10.993034807841
  0
TEXT
  8
1
 40
2.475
 41
0.75
  1
4
  7
STANDARD
 72
2
 10
19.5
 20
10.993034807841
 11
19.5
 21
10.993034807841
  0
LINE
  8
1
 10
-28
 20
10
 11
-28
 21
14
  0
TEXT
  8
1
 40
2.475
 41
0.75
  1
14
  7
STANDARD
 72
2
 10
-29
 20
11.093034807841
 11
-29
 21
11.093034807841
  0
LINE
  8
1
 10
-28
 20
4
 11
-28
 21
10
  0
LINE
  8
1
 10
24
 20
-4
 11
24
 21
-10
  0
LINE
  8
1
 10
28
 20
-4
 11
28
 21
-10
  0
LINE
  8
1
 10
20
 20
-4
 11
20
 21
-10
  0
LINE
  8
1
 10
20
 20
4
 11
20
 21
10
  0
LINE
  8
1
 10
28
 20
4
 11
28
 21
10
  0
LINE
  8
1
 10
-8
 20
-2
 11
-8
 21
6
  0
LINE
  8
1
 10
40
 20
-8
 11
40
 21
10
  0
POLYLINE
  8
1
 70
1
 66
1
 40
0.5
 41
0.5
  0
VERTEX
  8
1
 10
39.75
 20
-1.99999248164742
 42
1
  0
VERTEX
  8
1
 10
40.25
 20
-1.99999248164742
 42
1
  0
SEQEND
  8
1
  0
LINE
  8
1
 10
-32
 20
-8
 11
40
 21
-8
  0
LINE
  8
1
 10
-32
 20
-4.00000751835258
 11
-32
 21
-8
  0
LINE
  8
1
 10
-28
 20
-4.00000751835258
 11
-28
 21
-6
  0
LINE
  8
1
 10
-4
 20
-6
 11
-28
 21
-6
  0
LINE
  8
1
 10
-4
 20
10
 11
-4
 21
-6
  0
POLYLINE
  8
1
 70
1
 66
1
 40
0.5
 41
0.5
  0
VERTEX
  8
1
 10
-4.25
 20
-1.99999248164742
 42
1
  0
VERTEX
  8
1
 10
-3.75
 20
-1.99999248164742
 42
1
  0
SEQEND
  8
1
  0
POLYLINE
  8
1
 70
1
 66
1
 40
0.5
 41
0.5
  0
VERTEX
  8
1
 10
27.75
 20
6
 42
1
  0
VERTEX
  8
1
 10
28.25
 20
6
 42
1
  0
SEQEND
  8
1
  0
LINE
  8
1
 10
-8
 20
6
 11
28
 21
6
  0
LINE
  8
1
 10
-14.0000000000069
 20
-2
 11
-18
 21
-2
  0
LINE
  8
1
 10
-10.5359114070379
 20
-1.99999248164742
 11
-8
 21
-1.99999248164742
  0
LINE
  8
1
 10
-10.5359114070379
 20
7.51835257991236E-06
 11
-10.5359114070379
 21
-3.99999248164742
  0
LINE
  8
1
 10
-10.5359114070379
 20
7.51835257991236E-06
 11
-14.0000130221756
 21
-1.99999248164742
  0
LINE
  8
1
 10
-10.5359114070379
 20
-3.99999248164742
 11
-14.0000130221756
 21
-1.99999248164742
  0
ARC
  8
1
 10
37.7
 20
2
 40
1.5
 50
318.189261730993
 51
41.8097506925759
  0
ARC
  8
1
 10
42.3
 20
2
 40
1.5
 50
135
 51
221.809070801793
  0
ARC
  8
1
 10
-6.3
 20
2
 40
1.5
 50
318.189261730993
 51
41.8097506925759
  0
ARC
  8
1
 10
-1.7
 20
2
 40
1.5
 50
135
 51
221.809070801793
  0
POLYLINE
  8
1
 66
1
  0
VERTEX
  8
1
 10
40.5
 20
10
  0
VERTEX
  8
1
 10
40
 20
11
  0
VERTEX
  8
1
 10
39.5
 20
10
  0
SEQEND
  8
1
  0
POLYLINE
  8
1
 66
1
  0
VERTEX
  8
1
 10
-3.5
 20
10
  0
VERTEX
  8
1
 10
-4
 20
11
  0
VERTEX
  8
1
 10
-4.5
 20
10
  0
SEQEND
  8
1
  0
POLYLINE
  8
1
 66
1
  0
VERTEX
  8
1
 10
-39
 20
-4
  0
VERTEX
  8
1
 10
-38.5833333333333
 20
-6
  0
VERTEX
  8
1
 10
-37.75
 20
-2
  0
VERTEX
  8
1
 10
-36.9166666666667
 20
-6
  0
VERTEX
  8
1
 10
-36.0833333333333
 20
-2
  0
VERTEX
  8
1
 10
-35.25
 20
-6
  0
VERTEX
  8
1
 10
-34.4166666666667
 20
-2
  0
VERTEX
  8
1
 10
-34
 20
-4
  0
SEQEND
  8
1
  0
LINE
  8
1
 10
-34
 20
-6
 11
-34
 21
-2
  0
POLYLINE
  8
1
 66
1
  0
VERTEX
  8
1
 10
-34
 20
4
  0
VERTEX
  8
1
 10
-40
 20
4
  0
VERTEX
  8
1
 10
-40
 20
0
  0
VERTEX
  8
1
 10
-34
 20
0
  0
VERTEX
  8
1
 10
-34
 20
4
  0
SEQEND
  8
1
  0
LINE
  8
1
 10
-40
 20
4
 11
-36.5358983848622
 21
2
  0
LINE
  8
1
 10
-36.5358983848622
 20
2
 11
-34
 21
2
  0
LINE
  8
1
 10
-40
 20
0
 11
-36.5358983848622
 21
2
  0
POLYLINE
  8
1
 66
1
  0
VERTEX
  8
1
 10
-18
 20
4
  0
VERTEX
  8
1
 10
-12
 20
4
  0
VERTEX
  8
1
 10
-12
 20
0
  0
VERTEX
  8
1
 10
-18
 20
0
  0
VERTEX
  8
1
 10
-18
 20
4
  0
SEQEND
  8
1
  0
LINE
  8
1
 10
-12
 20
4
 11
-15.4641016151378
 21
2
  0
LINE
  8
1
 10
-15.4641016151378
 20
2
 11
-18
 21
2
  0
LINE
  8
1
 10
-12
 20
0
 11
-15.4641016151378
 21
2
  0
LINE
  8
1
 10
28
 20
-4
 11
28
 21
-2
  0
INSERT
  8
1
  2
LCBP1
 10
28
 20
-2
 50
90
  0
POLYLINE
  8
1
 66
1
  0
VERTEX
  8
1
 10
18
 20
4
  0
VERTEX
  8
1
 10
30
 20
4
  0
VERTEX
  8
1
 10
30
 20
-4
  0
VERTEX
  8
1
 10
18
 20
-4
  0
VERTEX
  8
1
 10
18
 20
4
  0
SEQEND
  8
1
  0
LINE
  8
1
 10
20
 20
4
 11
20
 21
-4
  0
INSERT
  8
1
  2
LCA1
 10
20
 20
-4
 50
-90
  0
LINE
  8
1
 10
24
 20
-4
 11
28
 21
4
  0
INSERT
  8
1
  2
LCA1
 10
28
 20
4
 50
63.434948822922
  0
LINE
  8
1
 10
8
 20
-4
 11
8
 21
-2
  0
INSERT
  8
1
  2
LCBP1
 10
8
 20
-2
 50
90
  0
POLYLINE
  8
1
 66
1
  0
VERTEX
  8
1
 10
6
 20
4
  0
VERTEX
  8
1
 10
18
 20
4
  0
VERTEX
  8
1
 10
18
 20
-4
  0
VERTEX
  8
1
 10
6
 20
-4
  0
VERTEX
  8
1
 10
6
 20
4
  0
SEQEND
  8
1
  0
LINE
  8
1
 10
16
 20
4
 11
16
 21
-4
  0
INSERT
  8
1
  2
LCA1
 10
16
 20
-4
 50
-90
  0
LINE
  8
1
 10
12
 20
-4
 11
8
 21
4
  0
INSERT
  8
1
  2
LCA1
 10
8
 20
4
 50
116.565051177078
  0
LINE
  8
1
 10
2.00000000000694
 20
-2
 11
6
 21
-2
  0
LINE
  8
1
 10
-1.46408859296212
 20
-1.99999248164742
 11
-4
 21
-1.99999248164742
  0
LINE
  8
1
 10
-1.46408859296212
 20
7.51835257991236E-06
 11
-1.46408859296212
 21
-3.99999248164742
  0
LINE
  8
1
 10
-1.46408859296212
 20
7.51835257991236E-06
 11
2.00001302217564
 21
-1.99999248164742
  0
LINE
  8
1
 10
-1.46408859296212
 20
-3.99999248164742
 11
2.00001302217564
 21
-1.99999248164742
  0
LINE
  8
1
 10
33.9999999999931
 20
-2
 11
30
 21
-2
  0
LINE
  8
1
 10
37.4640885929621
 20
-1.99999248164742
 11
40
 21
-1.99999248164742
  0
LINE
  8
1
 10
37.4640885929621
 20
7.51835257991236E-06
 11
37.4640885929621
 21
-3.99999248164742
  0
LINE
  8
1
 10
37.4640885929621
 20
7.51835257991236E-06
 11
33.9999869778244
 21
-1.99999248164742
  0
LINE
  8
1
 10
37.4640885929621
 20
-3.99999248164742
 11
33.9999869778244
 21
-1.99999248164742
  0
LINE
  8
1
 10
-28
 20
-4
 11
-28
 21
-2
  0
INSERT
  8
1
  2
LCBP1
 10
-28
 20
-2
 50
90
  0
POLYLINE
  8
1
 66
1
  0
VERTEX
  8
1
 10
-34
 20
4
  0
VERTEX
  8
1
 10
-26
 20
4
  0
VERTEX
  8
1
 10
-26
 20
-4
  0
VERTEX
  8
1
 10
-34
 20
-4
  0
VERTEX
  8
1
 10
-34
 20
4
  0
SEQEND
  8
1
  0
LINE
  8
1
 10
-28
 20
4
 11
-32
 21
-4
  0
INSERT
  8
1
  2
LCA1
 10
-32
 20
-4
 50
-116.565051177078
  0
LINE
  8
1
 10
-20
 20
4
 11
-20
 21
-4
  0
INSERT
  8
1
  2
LCA1
 10
-20
 20
-4
 50
-90
  0
LINE
  8
1
 10
-24
 20
-4
 11
-24
 21
-2
  0
INSERT
  8
1
  2
LCBP1
 10
-24
 20
-2
 50
90
  0
POLYLINE
  8
1
 66
1
  0
VERTEX
  8
1
 10
-26
 20
4
  0
VERTEX
  8
1
 10
-18
 20
4
  0
VERTEX
  8
1
 10
-18
 20
-4
  0
VERTEX
  8
1
 10
-26
 20
-4
  0
VERTEX
  8
1
 10
-26
 20
4
  0
SEQEND
  8
1
  0
CIRCLE
  8
CONNECTIONS
 10
20
 20
14
 40
0
  0
CIRCLE
  8
CONNECTIONS
 10
28
 20
14
 40
0
  0
CIRCLE
  8
CONNECTIONS
 10
20
 20
-14
 40
0
  0
CIRCLE
  8
CONNECTIONS
 10
24
 20
-14
 40
0
  0
CIRCLE
  8
CONNECTIONS
 10
28
 20
-14
 40
0
  0
CIRCLE
  8
CONNECTIONS
 10
-27.9892234802246
 20
14.2277674039205
 40
0
  0
ENDBLK
  8
0
  0
ENDSEC
  0
SECTION
  2
ENTITIES
  0
INSERT
  8
1
  2
B131988_00991307
 10
44
 20
14
  0
ENDSEC
  0
EOF
