  0
SECTION
  2
HEADER
  9
$LIMMIN
 10
0
 20
0
  9
$LIMMAX
 10
52.5
 20
74.25
  9
$EXTMIN
 10
0
 20
76
  9
$EXTMAX
 10
0
 20
56
  0
ENDSEC
  0
SECTION
  2
TABLES
  0
TABLE
  2
LTYPE
 70
9
  0
LTYPE
  2
CONTINUOUS
 70
64
  3
Solid line
 72
65
 73
0
 40
0
  0
LTYPE
  2
DASHED
 70
64
  3
__ __ __ __ __ __ __ __ __
 72
65
 73
2
 40
0.75
 49
0.5
 49
-0.25
  0
LTYPE
  2
DOT
 70
64
  3
...........................
 72
65
 73
2
 40
0.25
 49
0
 49
-0.25
  0
LTYPE
  2
DASHDOT
 70
64
  3
__ . __ . __ . __ . __ . __ . 
 72
65
 73
4
 40
1
 49
0.5
 49
-0.25
 49
0
 49
-0.25
  0
ENDTAB
  0
TABLE
  2
LAYER
 70
10
  0
LAYER
  2
1
 70
0
 62
7
  6
CONTINUOUS
  0
LAYER
  2
CONNECTIONS
 70
0
 62
-7
  6
CONTINUOUS
  0
ENDTAB
  0
ENDSEC
  0
SECTION
  2
BLOCKS
  0
BLOCK
  8
0
  2
TRICON
 70
0
 10
0
 20
0
  0
POLYLINE
  8
1
 70
1
 66
1
 40
0.5
 41
0.5
  0
VERTEX
  8
1
 10
-0.25
 20
0
 42
1
  0
VERTEX
  8
1
 10
0.25
 20
0
 42
1
  0
SEQEND
  8
1
  0
ENDBLK
  8
0
  0
BLOCK
  8
0
  2
TRICONSMALL
 70
0
 10
0
 20
0
  0
POLYLINE
  8
1
 70
1
 66
1
 40
0.25
 41
0.25
  0
VERTEX
  8
1
 10
-0.125
 20
0
 42
1
  0
VERTEX
  8
1
 10
0.125
 20
0
 42
1
  0
SEQEND
  8
1
  0
ENDBLK
  8
0
  0
BLOCK
  8
0
  2
TRICONCIRCLE
 70
0
 10
0
 20
0
  0
CIRCLE
  8
1
 10
0
 20
0
 40
0.5
  0
ENDBLK
  8
0
  0
BLOCK
  8
0
  2
LCBP0
 70
0
 10
0
 20
0
  0
LINE
  8
1
 10
0
 20
-0.46875
 11
0
 21
0.46875
  0
ENDBLK
  8
0
  0
BLOCK
  8
0
  2
LCBP1
 70
0
 10
0
 20
0
  0
LINE
  8
1
 10
0
 20
-0.625
 11
0
 21
0.625
  0
ENDBLK
  8
0
  0
BLOCK
  8
0
  2
LCBP2
 70
0
 10
0
 20
0
  0
LINE
  8
1
 10
0
 20
-0.9375
 11
0
 21
0.9375
  0
ENDBLK
  8
0
  0
BLOCK
  8
0
  2
LCA1
 70
0
 10
0
 20
0
  0
SOLID
  8
1
 62
7 
 10
0
 20
0
 11
-1.4
 21
-0.275
 12
-1.4
 22
0.275
 13
-1.4
 23
0.275
  0
ENDBLK
  8
0
  0
BLOCK
  8
0
  2
LCA2
 70
0
 10
0
 20
0
  0
SOLID
  8
1
 62
7 
 10
0
 20
0
 11
-1.65
 21
-0.525
 12
-1.65
 22
0.525
 13
-1.65
 23
0.525
  0
ENDBLK
  8
0
  0
BLOCK
  8
0
  2
LCA3
 70
0
 10
0
 20
0
  0
SOLID
  8
1
 62
7 
 10
0
 20
0
 11
-2.15
 21
-1.15
 12
-2.15
 22
1.15
 13
-2.15
 23
1.15
  0
ENDBLK
  8
0
  0
BLOCK
  8
0
  2
LCA1R
 70
0
 10
0
 20
0
  0
SOLID
  8
1
 62
7 
 10
0
 20
0
 11
1.4
 21
-0.275
 12
1.4
 22
0.275
 13
1.4
 23
0.275
  0
ENDBLK
  8
0
  0
BLOCK
  8
0
  2
LCA2R
 70
0
 10
0
 20
0
  0
SOLID
  8
1
 62
7 
 10
0
 20
0
 11
1.65
 21
-0.525
 12
1.65
 22
0.525
 13
1.65
 23
0.525
  0
ENDBLK
  8
0
  0
BLOCK
  8
0
  2
LCA3R
 70
0
 10
0
 20
0
  0
SOLID
  8
1
 62
7 
 10
0
 20
0
 11
2.15
 21
-1.15
 12
2.15
 22
1.15
 13
2.15
 23
1.15
  0
ENDBLK
  8
0
  0
BLOCK
  8
0
  2
B137_00991306
 70
0
 10
0
 20
0
  0
LINE
  8
1
 10
-29.5
 20
-24.5
 11
-31.5
 21
-15.5
  0
INSERT
  8
1
  2
LCA1
 10
-31.5
 20
-15.5
 50
102.528807709152
  0
POLYLINE
  8
1
 66
1
  0
VERTEX
  8
1
 10
-33
 20
-20
  0
VERTEX
  8
1
 10
-32.5833333333332
 20
-22
  0
VERTEX
  8
1
 10
-31.75
 20
-18
  0
VERTEX
  8
1
 10
-30.9166666666668
 20
-22
  0
VERTEX
  8
1
 10
-30.0833333333332
 20
-18
  0
VERTEX
  8
1
 10
-29.25
 20
-22
  0
VERTEX
  8
1
 10
-28.4166666666668
 20
-18
  0
VERTEX
  8
1
 10
-28
 20
-20
  0
SEQEND
  8
1
  0
POLYLINE
  8
1
 66
1
  0
VERTEX
  8
1
 10
-26.85
 20
-20.3
  0
VERTEX
  8
1
 10
-25.85
 20
-20.3
  0
VERTEX
  8
1
 10
-23.35
 20
-19.3
  0
SEQEND
  8
1
  0
LINE
  8
1
 10
-24.15
 20
-20.3
 11
-23.15
 21
-20.3
  0
POLYLINE
  8
1
 66
1
  0
VERTEX
  8
1
 10
-28
 20
-17
  0
VERTEX
  8
1
 10
-28
 20
-23
  0
VERTEX
  8
1
 10
-22
 20
-23
  0
VERTEX
  8
1
 10
-22
 20
-17
  0
VERTEX
  8
1
 10
-28
 20
-17
  0
SEQEND
  8
1
  0
POLYLINE
  8
1
 66
1
  0
VERTEX
  8
1
 10
-29
 20
3
  0
VERTEX
  8
1
 10
-31
 20
4
  0
VERTEX
  8
1
 10
-29
 20
5
  0
SEQEND
  8
1
  0
LINE
  8
1
 10
-27
 20
6
 11
-27
 21
4
  0
LINE
  8
1
 10
-25
 20
2
 11
-25
 21
4
  0
LINE
  8
1
 10
-23
 20
6
 11
-23
 21
4
  0
POLYLINE
  8
1
 66
1
  0
VERTEX
  8
1
 10
-29
 20
6
  0
VERTEX
  8
1
 10
-21
 20
6
  0
VERTEX
  8
1
 10
-21
 20
2
  0
VERTEX
  8
1
 10
-29
 20
2
  0
VERTEX
  8
1
 10
-29
 20
6
  0
SEQEND
  8
1
  0
ARC
  8
1
 10
7
 20
-6
 40
9
 50
70.528596800055
 51
109.471050579339
  0
ARC
  8
1
 10
7
 20
14
 40
9
 50
250.52865870751
 51
289.47139531546
  0
LINE
  8
1
  6
DASHED
 10
18.05
 20
-6.31656263109698
 11
18.05
 21
-17.6302711300816
  0
POLYLINE
  8
1
 66
1
  0
VERTEX
  8
1
 10
16.050027126736
 20
-15.6302982568178
  0
VERTEX
  8
1
 10
18.05
 20
-17.6302711300818
  0
VERTEX
  8
1
 10
20.050012259198
 20
-15.6302588708838
  0
SEQEND
  8
1
  0
POLYLINE
  8
1
 66
1
  0
VERTEX
  8
1
 10
18.05
 20
-6.316562631097
  0
VERTEX
  8
1
 10
12.3931457505077
 20
-11.9734168805892
  0
VERTEX
  8
1
 10
18.05
 20
-17.6302711300818
  0
VERTEX
  8
1
 10
23.7068542494925
 20
-11.9734168805892
  0
VERTEX
  8
1
 10
18.05
 20
-6.316562631097
  0
SEQEND
  8
1
  0
POLYLINE
  8
1
 66
1
  0
VERTEX
  8
1
 10
15.950027126736
 20
-15.6302982568178
  0
VERTEX
  8
1
 10
17.95
 20
-17.6302711300818
  0
VERTEX
  8
1
 10
19.950012259198
 20
-15.6302588708838
  0
SEQEND
  8
1
  0
POLYLINE
  8
1
 66
1
  0
VERTEX
  8
1
 10
17.95
 20
-6.316562631097
  0
VERTEX
  8
1
 10
12.2931457505078
 20
-11.9734168805892
  0
VERTEX
  8
1
 10
17.95
 20
-17.6302711300818
  0
VERTEX
  8
1
 10
23.6068542494925
 20
-11.9734168805892
  0
VERTEX
  8
1
 10
17.95
 20
-6.316562631097
  0
SEQEND
  8
1
  0
POLYLINE
  8
1
 66
1
  0
VERTEX
  8
1
 10
7
 20
0
  0
VERTEX
  8
1
 10
5
 20
-0.416666666666679
  0
VERTEX
  8
1
 10
9
 20
-1.25
  0
VERTEX
  8
1
 10
5
 20
-2.08333333333325
  0
VERTEX
  8
1
 10
9
 20
-2.91666666666675
  0
VERTEX
  8
1
 10
5
 20
-3.75
  0
VERTEX
  8
1
 10
9
 20
-4.58333333333325
  0
VERTEX
  8
1
 10
7
 20
-5
  0
SEQEND
  8
1
  0
LINE
  8
1
 10
7
 20
-5
 11
7
 21
3
  0
LINE
  8
1
 10
7
 20
-7.5
 11
7
 21
-10.5
  0
CIRCLE
  8
1
 10
7
 20
-6
 40
1
  0
POLYLINE
  8
1
 66
1
  0
VERTEX
  8
1
 10
5
 20
-5.5
  0
VERTEX
  8
1
 10
7
 20
-7.5
  0
VERTEX
  8
1
 10
9
 20
-5.5
  0
SEQEND
  8
1
  0
TEXT
  8
1
 40
2.475
 41
0.75
  1
1
  7
STANDARD
 72
2
 10
39
 20
24.7375
 11
39
 21
24.7375
  0
TEXT
  8
1
 40
2.475
 41
0.75
  1
2
  7
STANDARD
 72
2
 10
39
 20
-3.26249999999999
 11
39
 21
-3.26249999999999
  0
POLYLINE
  8
1
 70
1
 66
1
 40
0.5
 41
0.5
  0
VERTEX
  8
1
 10
-13.25
 20
-20
 42
1
  0
VERTEX
  8
1
 10
-12.75
 20
-20
 42
1
  0
SEQEND
  8
1
  0
LINE
  8
1
 10
-13
 20
-17
 11
-13
 21
-20
  0
LINE
  8
1
 10
-13
 20
12
 11
-13
 21
-1
  0
LINE
  8
1
 10
30
 20
-20
 11
-22
 21
-20
  0
LINE
  8
1
 10
30
 20
-4
 11
30
 21
-20
  0
LINE
  8
1
 10
38
 20
-4
 11
30
 21
-4
  0
LINE
  8
1
 10
7
 20
-12
 11
7
 21
-10
  0
TEXT
  8
1
 40
2.475
 41
0.75
  1
2
  7
STANDARD
 72
2
 73
3
 10
39
 20
-12.61875
 11
39
 21
-12.61875
  0
LINE
  8
1
 10
7
 20
-12
 11
12.4
 21
-12
  0
POLYLINE
  8
1
 70
1
 66
1
 40
0.5
 41
0.5
  0
VERTEX
  8
1
 10
29.75
 20
-12
 42
1
  0
VERTEX
  8
1
 10
30.25
 20
-12
 42
1
  0
SEQEND
  8
1
  0
LINE
  8
1
 10
38
 20
-12
 11
23.5
 21
-12
  0
POLYLINE
  8
1
 70
1
 66
1
 40
0.5
 41
0.5
  0
VERTEX
  8
1
 10
21.75
 20
24
 42
1
  0
VERTEX
  8
1
 10
22.25
 20
24
 42
1
  0
SEQEND
  8
1
  0
LINE
  8
1
 10
22
 20
24
 11
22
 21
20
  0
LINE
  8
1
 10
-13
 20
24
 11
-13
 21
20
  0
LINE
  8
1
 10
38
 20
24
 11
-13
 21
24
  0
LINE
  8
1
 10
22
 20
12
 11
22
 21
4
  0
LINE
  8
1
 10
22
 20
4
 11
-21
 21
4
  0
LINE
  8
1
 10
-13
 20
-1
 11
-13
 21
-17
  0
ARC
  8
1
 10
-23
 20
-9
 40
9
 50
340.528596800055
 51
19.4710505793386
  0
ARC
  8
1
 10
-3
 20
-9
 40
9
 50
160.52865870751
 51
199.47139531546
  0
LINE
  8
1
 10
-16.5
 20
-10.5
 11
-9.5
 21
-7.5
  0
INSERT
  8
1
  2
LCA1
 10
-9.5
 20
-7.5
 50
23.1985905136482
  0
LINE
  8
1
 10
-21
 20
20
 11
-21
 21
12
  0
INSERT
  8
1
  2
LCA1
 10
-21
 20
12
 50
-90
  0
POLYLINE
  8
1
 66
1
  0
VERTEX
  8
1
 10
-25
 20
20
  0
VERTEX
  8
1
 10
-17
 20
20
  0
VERTEX
  8
1
 10
-17
 20
12
  0
VERTEX
  8
1
 10
-25
 20
12
  0
VERTEX
  8
1
 10
-25
 20
20
  0
SEQEND
  8
1
  0
LINE
  8
1
 10
-13
 20
20
 11
-13
 21
18
  0
INSERT
  8
1
  2
LCBP1
 10
-13
 20
18
 50
-90
  0
LINE
  8
1
 10
-13
 20
12
 11
-13
 21
14
  0
INSERT
  8
1
  2
LCBP1
 10
-13
 20
14
 50
90
  0
POLYLINE
  8
1
 66
1
  0
VERTEX
  8
1
 10
-17
 20
20
  0
VERTEX
  8
1
 10
-9
 20
20
  0
VERTEX
  8
1
 10
-9
 20
12
  0
VERTEX
  8
1
 10
-17
 20
12
  0
VERTEX
  8
1
 10
-17
 20
20
  0
SEQEND
  8
1
  0
LINE
  8
1
 10
-29
 20
19.5
 11
-25
 21
19.5
  0
LINE
  8
1
 10
-29
 20
20
 11
-29
 21
17
  0
LINE
  8
1
 10
-29
 20
17.5
 11
-25
 21
17.5
  0
LINE
  8
1
 10
-25
 20
16
 11
-25
 21
20
  0
LINE
  8
1
 10
-29
 20
12
 11
-27
 21
16
  0
POLYLINE
  8
1
 66
1
  0
VERTEX
  8
1
 10
-31
 20
16
  0
VERTEX
  8
1
 10
-25
 20
16
  0
VERTEX
  8
1
 10
-25
 20
12
  0
VERTEX
  8
1
 10
-31
 20
12
  0
VERTEX
  8
1
 10
-31
 20
16
  0
SEQEND
  8
1
  0
POLYLINE
  8
1
 66
1
  0
VERTEX
  8
1
 10
-4
 20
14
  0
VERTEX
  8
1
 10
-4.41666666666675
 20
12
  0
VERTEX
  8
1
 10
-5.25
 20
16
  0
VERTEX
  8
1
 10
-6.08333333333325
 20
12
  0
VERTEX
  8
1
 10
-6.91666666666675
 20
16
  0
VERTEX
  8
1
 10
-7.75
 20
12
  0
VERTEX
  8
1
 10
-8.58333333333325
 20
16
  0
VERTEX
  8
1
 10
-9
 20
14
  0
SEQEND
  8
1
  0
LINE
  8
1
 10
14
 20
20
 11
14
 21
12
  0
INSERT
  8
1
  2
LCA1
 10
14
 20
12
 50
-90
  0
POLYLINE
  8
1
 66
1
  0
VERTEX
  8
1
 10
10
 20
20
  0
VERTEX
  8
1
 10
18
 20
20
  0
VERTEX
  8
1
 10
18
 20
12
  0
VERTEX
  8
1
 10
10
 20
12
  0
VERTEX
  8
1
 10
10
 20
20
  0
SEQEND
  8
1
  0
LINE
  8
1
 10
22
 20
20
 11
22
 21
18
  0
INSERT
  8
1
  2
LCBP1
 10
22
 20
18
 50
-90
  0
LINE
  8
1
 10
22
 20
12
 11
22
 21
14
  0
INSERT
  8
1
  2
LCBP1
 10
22
 20
14
 50
90
  0
POLYLINE
  8
1
 66
1
  0
VERTEX
  8
1
 10
18
 20
20
  0
VERTEX
  8
1
 10
26
 20
20
  0
VERTEX
  8
1
 10
26
 20
12
  0
VERTEX
  8
1
 10
18
 20
12
  0
VERTEX
  8
1
 10
18
 20
20
  0
SEQEND
  8
1
  0
LINE
  8
1
 10
6
 20
19.5
 11
10
 21
19.5
  0
LINE
  8
1
 10
6
 20
20
 11
6
 21
17
  0
LINE
  8
1
 10
6
 20
17.5
 11
10
 21
17.5
  0
LINE
  8
1
 10
10
 20
16
 11
10
 21
20
  0
LINE
  8
1
 10
6
 20
12
 11
8
 21
16
  0
POLYLINE
  8
1
 66
1
  0
VERTEX
  8
1
 10
4
 20
16
  0
VERTEX
  8
1
 10
10
 20
16
  0
VERTEX
  8
1
 10
10
 20
12
  0
VERTEX
  8
1
 10
4
 20
12
  0
VERTEX
  8
1
 10
4
 20
16
  0
SEQEND
  8
1
  0
POLYLINE
  8
1
 66
1
  0
VERTEX
  8
1
 10
31
 20
14
  0
VERTEX
  8
1
 10
30.5833333333332
 20
12
  0
VERTEX
  8
1
 10
29.75
 20
16
  0
VERTEX
  8
1
 10
28.9166666666668
 20
12
  0
VERTEX
  8
1
 10
28.0833333333332
 20
16
  0
VERTEX
  8
1
 10
27.25
 20
12
  0
VERTEX
  8
1
 10
26.4166666666668
 20
16
  0
VERTEX
  8
1
 10
26
 20
14
  0
SEQEND
  8
1
  0
POLYLINE
  8
1
 66
1
  0
VERTEX
  8
1
 10
-38
 20
28
  0
VERTEX
  8
1
 10
34
 20
28
  0
VERTEX
  8
1
 10
34
 20
-28
  0
VERTEX
  8
1
 10
-38
 20
-28
  0
VERTEX
  8
1
 10
-38
 20
28
  0
SEQEND
  8
1
  0
CIRCLE
  8
CONNECTIONS
 10
38
 20
24
 40
0
  0
CIRCLE
  8
CONNECTIONS
 10
38
 20
-4
 40
0
  0
CIRCLE
  8
CONNECTIONS
 10
38
 20
-12
 40
0
  0
CIRCLE
  8
CONNECTIONS
 10
-31
 20
14
 40
0
  0
CIRCLE
  8
CONNECTIONS
 10
4
 20
14
 40
0
  0
ENDBLK
  8
0
  0
ENDSEC
  0
SECTION
  2
ENTITIES
  0
INSERT
  8
1
  2
B137_00991306
 10
38
 20
28
  0
ENDSEC
  0
EOF
