  0
SECTION
  2
HEADER
  9
$LIMMIN
 10
0
 20
0
  9
$LIMMAX
 10
52.5
 20
74.25
  9
$EXTMIN
 10
0
 20
52
  9
$EXTMAX
 10
0
 20
52
  0
ENDSEC
  0
SECTION
  2
TABLES
  0
TABLE
  2
LTYPE
 70
9
  0
LTYPE
  2
CONTINUOUS
 70
64
  3
Solid line
 72
65
 73
0
 40
0
  0
LTYPE
  2
DASHED
 70
64
  3
__ __ __ __ __ __ __ __ __
 72
65
 73
2
 40
0.75
 49
0.5
 49
-0.25
  0
LTYPE
  2
DOT
 70
64
  3
...........................
 72
65
 73
2
 40
0.25
 49
0
 49
-0.25
  0
LTYPE
  2
DASHDOT
 70
64
  3
__ . __ . __ . __ . __ . __ . 
 72
65
 73
4
 40
1
 49
0.5
 49
-0.25
 49
0
 49
-0.25
  0
ENDTAB
  0
TABLE
  2
LAYER
 70
10
  0
LAYER
  2
1
 70
0
 62
7
  6
CONTINUOUS
  0
LAYER
  2
CONNECTIONS
 70
0
 62
-7
  6
CONTINUOUS
  0
ENDTAB
  0
ENDSEC
  0
SECTION
  2
BLOCKS
  0
BLOCK
  8
0
  2
TRICON
 70
0
 10
0
 20
0
  0
POLYLINE
  8
1
 70
1
 66
1
 40
0.5
 41
0.5
  0
VERTEX
  8
1
 10
-0.25
 20
0
 42
1
  0
VERTEX
  8
1
 10
0.25
 20
0
 42
1
  0
SEQEND
  8
1
  0
ENDBLK
  8
0
  0
BLOCK
  8
0
  2
TRICONSMALL
 70
0
 10
0
 20
0
  0
POLYLINE
  8
1
 70
1
 66
1
 40
0.25
 41
0.25
  0
VERTEX
  8
1
 10
-0.125
 20
0
 42
1
  0
VERTEX
  8
1
 10
0.125
 20
0
 42
1
  0
SEQEND
  8
1
  0
ENDBLK
  8
0
  0
BLOCK
  8
0
  2
TRICONCIRCLE
 70
0
 10
0
 20
0
  0
CIRCLE
  8
1
 10
0
 20
0
 40
0.5
  0
ENDBLK
  8
0
  0
BLOCK
  8
0
  2
LCBP0
 70
0
 10
0
 20
0
  0
LINE
  8
1
 10
0
 20
-0.46875
 11
0
 21
0.46875
  0
ENDBLK
  8
0
  0
BLOCK
  8
0
  2
LCBP1
 70
0
 10
0
 20
0
  0
LINE
  8
1
 10
0
 20
-0.625
 11
0
 21
0.625
  0
ENDBLK
  8
0
  0
BLOCK
  8
0
  2
LCBP2
 70
0
 10
0
 20
0
  0
LINE
  8
1
 10
0
 20
-0.9375
 11
0
 21
0.9375
  0
ENDBLK
  8
0
  0
BLOCK
  8
0
  2
LCA1
 70
0
 10
0
 20
0
  0
SOLID
  8
1
 62
7 
 10
0
 20
0
 11
-1.4
 21
-0.275
 12
-1.4
 22
0.275
 13
-1.4
 23
0.275
  0
ENDBLK
  8
0
  0
BLOCK
  8
0
  2
LCA2
 70
0
 10
0
 20
0
  0
SOLID
  8
1
 62
7 
 10
0
 20
0
 11
-1.65
 21
-0.525
 12
-1.65
 22
0.525
 13
-1.65
 23
0.525
  0
ENDBLK
  8
0
  0
BLOCK
  8
0
  2
LCA3
 70
0
 10
0
 20
0
  0
SOLID
  8
1
 62
7 
 10
0
 20
0
 11
-2.15
 21
-1.15
 12
-2.15
 22
1.15
 13
-2.15
 23
1.15
  0
ENDBLK
  8
0
  0
BLOCK
  8
0
  2
LCA1R
 70
0
 10
0
 20
0
  0
SOLID
  8
1
 62
7 
 10
0
 20
0
 11
1.4
 21
-0.275
 12
1.4
 22
0.275
 13
1.4
 23
0.275
  0
ENDBLK
  8
0
  0
BLOCK
  8
0
  2
LCA2R
 70
0
 10
0
 20
0
  0
SOLID
  8
1
 62
7 
 10
0
 20
0
 11
1.65
 21
-0.525
 12
1.65
 22
0.525
 13
1.65
 23
0.525
  0
ENDBLK
  8
0
  0
BLOCK
  8
0
  2
LCA3R
 70
0
 10
0
 20
0
  0
SOLID
  8
1
 62
7 
 10
0
 20
0
 11
2.15
 21
-1.15
 12
2.15
 22
1.15
 13
2.15
 23
1.15
  0
ENDBLK
  8
0
  0
BLOCK
  8
0
  2
B65_00991304
 70
0
 10
0
 20
0
  0
POLYLINE
  8
1
 66
1
  0
VERTEX
  8
1
 10
-20
 20
1
  0
VERTEX
  8
1
 10
-22
 20
2
  0
VERTEX
  8
1
 10
-20
 20
3
  0
SEQEND
  8
1
  0
LINE
  8
1
 10
-18
 20
4
 11
-18
 21
2
  0
LINE
  8
1
 10
-16
 20
0
 11
-16
 21
2
  0
LINE
  8
1
 10
-14
 20
4
 11
-14
 21
2
  0
POLYLINE
  8
1
 66
1
  0
VERTEX
  8
1
 10
-20
 20
4
  0
VERTEX
  8
1
 10
-12
 20
4
  0
VERTEX
  8
1
 10
-12
 20
0
  0
VERTEX
  8
1
 10
-20
 20
0
  0
VERTEX
  8
1
 10
-20
 20
4
  0
SEQEND
  8
1
  0
ARC
  8
1
 10
-5
 20
-8
 40
9
 50
70.528596800055
 51
109.471050579339
  0
ARC
  8
1
 10
-5
 20
12
 40
9
 50
250.52865870751
 51
289.47139531546
  0
LINE
  8
1
  6
DASHED
 10
6
 20
-8.31656263109697
 11
6
 21
-19.6302711300816
  0
POLYLINE
  8
1
 66
1
  0
VERTEX
  8
1
 10
4.000027126736
 20
-17.6302982568178
  0
VERTEX
  8
1
 10
6
 20
-19.6302711300818
  0
VERTEX
  8
1
 10
8.000012259198
 20
-17.6302588708838
  0
SEQEND
  8
1
  0
POLYLINE
  8
1
 66
1
  0
VERTEX
  8
1
 10
6
 20
-8.316562631097
  0
VERTEX
  8
1
 10
0.343145750507754
 20
-13.9734168805892
  0
VERTEX
  8
1
 10
6
 20
-19.6302711300818
  0
VERTEX
  8
1
 10
11.6568542494925
 20
-13.9734168805892
  0
VERTEX
  8
1
 10
6
 20
-8.316562631097
  0
SEQEND
  8
1
  0
POLYLINE
  8
1
 70
1
 66
1
 40
0.5
 41
0.5
  0
VERTEX
  8
1
 10
-5.25
 20
-14
 42
1
  0
VERTEX
  8
1
 10
-4.75
 20
-14
 42
1
  0
SEQEND
  8
1
  0
LINE
  8
1
 10
-9
 20
-14
 11
0.5
 21
-14
  0
LINE
  8
1
 10
10
 20
22
 11
26
 21
22
  0
LINE
  8
1
 10
-5
 20
1
 11
-5
 21
-14
  0
TEXT
  8
1
 40
2.475
 41
0.75
  1
2
  7
STANDARD
 72
2
 73
3
 10
27.0160139802409
 20
-14.6840344166061
 11
27.0160139802409
 21
-14.6840344166061
  0
TEXT
  8
1
 40
2.475
 41
0.75
  1
2
  7
STANDARD
 72
2
 10
27.0160139802409
 20
-5.82778441660614
 11
27.0160139802409
 21
-5.82778441660614
  0
LINE
  8
1
 10
26
 20
-14
 11
11.5
 21
-14
  0
POLYLINE
  8
1
 70
1
 66
1
 40
0.5
 41
0.5
  0
VERTEX
  8
1
 10
17.75
 20
-14
 42
1
  0
VERTEX
  8
1
 10
18.25
 20
-14
 42
1
  0
SEQEND
  8
1
  0
POLYLINE
  8
1
 66
1
  0
VERTEX
  8
1
 10
18
 20
-14
  0
VERTEX
  8
1
 10
18
 20
-6
  0
VERTEX
  8
1
 10
26
 20
-6
  0
SEQEND
  8
1
  0
LINE
  8
1
 10
10
 20
2
 11
10
 21
10
  0
LINE
  8
1
 10
-12
 20
2
 11
10
 21
2
  0
LINE
  8
1
 10
10
 20
22
 11
10
 21
18
  0
TEXT
  8
1
 40
2.475
 41
0.75
  1
1
  7
STANDARD
 72
2
 10
27.0160139802409
 20
22.1722155833939
 11
27.0160139802409
 21
22.1722155833939
  0
LINE
  8
1
 10
-16.5
 20
-18.5
 11
-18.5
 21
-9.5
  0
INSERT
  8
1
  2
LCA1
 10
-18.5
 20
-9.5
 50
102.528807709152
  0
POLYLINE
  8
1
 66
1
  0
VERTEX
  8
1
 10
-20
 20
-14
  0
VERTEX
  8
1
 10
-19.5833333333332
 20
-16
  0
VERTEX
  8
1
 10
-18.75
 20
-12
  0
VERTEX
  8
1
 10
-17.9166666666668
 20
-16
  0
VERTEX
  8
1
 10
-17.0833333333332
 20
-12
  0
VERTEX
  8
1
 10
-16.25
 20
-16
  0
VERTEX
  8
1
 10
-15.4166666666668
 20
-12
  0
VERTEX
  8
1
 10
-15
 20
-14
  0
SEQEND
  8
1
  0
POLYLINE
  8
1
 66
1
  0
VERTEX
  8
1
 10
-13.85
 20
-14.3
  0
VERTEX
  8
1
 10
-12.85
 20
-14.3
  0
VERTEX
  8
1
 10
-10.35
 20
-13.3
  0
SEQEND
  8
1
  0
LINE
  8
1
 10
-11.15
 20
-14.3
 11
-10.15
 21
-14.3
  0
POLYLINE
  8
1
 66
1
  0
VERTEX
  8
1
 10
-15
 20
-11
  0
VERTEX
  8
1
 10
-15
 20
-17
  0
VERTEX
  8
1
 10
-9
 20
-17
  0
VERTEX
  8
1
 10
-9
 20
-11
  0
VERTEX
  8
1
 10
-15
 20
-11
  0
SEQEND
  8
1
  0
LINE
  8
1
 10
2
 20
18
 11
2
 21
10
  0
INSERT
  8
1
  2
LCA1
 10
2
 20
10
 50
-90
  0
POLYLINE
  8
1
 66
1
  0
VERTEX
  8
1
 10
-2
 20
18
  0
VERTEX
  8
1
 10
6
 20
18
  0
VERTEX
  8
1
 10
6
 20
10
  0
VERTEX
  8
1
 10
-2
 20
10
  0
VERTEX
  8
1
 10
-2
 20
18
  0
SEQEND
  8
1
  0
LINE
  8
1
 10
10
 20
18
 11
10
 21
16
  0
INSERT
  8
1
  2
LCBP1
 10
10
 20
16
 50
-90
  0
LINE
  8
1
 10
10
 20
10
 11
10
 21
12
  0
INSERT
  8
1
  2
LCBP1
 10
10
 20
12
 50
90
  0
POLYLINE
  8
1
 66
1
  0
VERTEX
  8
1
 10
6
 20
18
  0
VERTEX
  8
1
 10
14
 20
18
  0
VERTEX
  8
1
 10
14
 20
10
  0
VERTEX
  8
1
 10
6
 20
10
  0
VERTEX
  8
1
 10
6
 20
18
  0
SEQEND
  8
1
  0
LINE
  8
1
 10
-6
 20
17.5
 11
-2
 21
17.5
  0
LINE
  8
1
 10
-6
 20
18
 11
-6
 21
15
  0
LINE
  8
1
 10
-6
 20
15.5
 11
-2
 21
15.5
  0
LINE
  8
1
 10
-2
 20
14
 11
-2
 21
18
  0
LINE
  8
1
 10
-6
 20
10
 11
-4
 21
14
  0
POLYLINE
  8
1
 66
1
  0
VERTEX
  8
1
 10
-8
 20
14
  0
VERTEX
  8
1
 10
-2
 20
14
  0
VERTEX
  8
1
 10
-2
 20
10
  0
VERTEX
  8
1
 10
-8
 20
10
  0
VERTEX
  8
1
 10
-8
 20
14
  0
SEQEND
  8
1
  0
POLYLINE
  8
1
 66
1
  0
VERTEX
  8
1
 10
19
 20
12
  0
VERTEX
  8
1
 10
18.5833333333333
 20
10
  0
VERTEX
  8
1
 10
17.75
 20
14
  0
VERTEX
  8
1
 10
16.9166666666668
 20
10
  0
VERTEX
  8
1
 10
16.0833333333333
 20
14
  0
VERTEX
  8
1
 10
15.25
 20
10
  0
VERTEX
  8
1
 10
14.4166666666667
 20
14
  0
VERTEX
  8
1
 10
14
 20
12
  0
SEQEND
  8
1
  0
POLYLINE
  8
1
 66
1
  0
VERTEX
  8
1
 10
-26
 20
26
  0
VERTEX
  8
1
 10
22
 20
26
  0
VERTEX
  8
1
 10
22
 20
-26
  0
VERTEX
  8
1
 10
-26
 20
-26
  0
VERTEX
  8
1
 10
-26
 20
26
  0
SEQEND
  8
1
  0
CIRCLE
  8
CONNECTIONS
 10
26
 20
22
 40
0
  0
CIRCLE
  8
CONNECTIONS
 10
26
 20
-6
 40
0
  0
CIRCLE
  8
CONNECTIONS
 10
26
 20
-14
 40
0
  0
CIRCLE
  8
CONNECTIONS
 10
-8
 20
12
 40
0
  0
ENDBLK
  8
0
  0
ENDSEC
  0
SECTION
  2
ENTITIES
  0
INSERT
  8
1
  2
B65_00991304
 10
26
 20
26
  0
ENDSEC
  0
EOF
