  0
SECTION
  2
HEADER
  9
$LIMMIN
 10
0
 20
0
  9
$LIMMAX
 10
52.5
 20
74.25
  9
$EXTMIN
 10
0
 20
26.6836639086405
  9
$EXTMAX
 10
0
 20
16.9722327550252
  0
ENDSEC
  0
SECTION
  2
TABLES
  0
TABLE
  2
LTYPE
 70
9
  0
LTYPE
  2
CONTINUOUS
 70
64
  3
Solid line
 72
65
 73
0
 40
0
  0
LTYPE
  2
DASHED
 70
64
  3
__ __ __ __ __ __ __ __ __
 72
65
 73
2
 40
0.75
 49
0.5
 49
-0.25
  0
LTYPE
  2
DOT
 70
64
  3
...........................
 72
65
 73
2
 40
0.25
 49
0
 49
-0.25
  0
LTYPE
  2
DASHDOT
 70
64
  3
__ . __ . __ . __ . __ . __ . 
 72
65
 73
4
 40
1
 49
0.5
 49
-0.25
 49
0
 49
-0.25
  0
ENDTAB
  0
TABLE
  2
LAYER
 70
10
  0
LAYER
  2
1
 70
0
 62
7
  6
CONTINUOUS
  0
LAYER
  2
CONNECTIONS
 70
0
 62
-7
  6
CONTINUOUS
  0
ENDTAB
  0
ENDSEC
  0
SECTION
  2
BLOCKS
  0
BLOCK
  8
0
  2
TRICON
 70
0
 10
0
 20
0
  0
POLYLINE
  8
1
 70
1
 66
1
 40
0.5
 41
0.5
  0
VERTEX
  8
1
 10
-0.25
 20
0
 42
1
  0
VERTEX
  8
1
 10
0.25
 20
0
 42
1
  0
SEQEND
  8
1
  0
ENDBLK
  8
0
  0
BLOCK
  8
0
  2
TRICONSMALL
 70
0
 10
0
 20
0
  0
POLYLINE
  8
1
 70
1
 66
1
 40
0.25
 41
0.25
  0
VERTEX
  8
1
 10
-0.125
 20
0
 42
1
  0
VERTEX
  8
1
 10
0.125
 20
0
 42
1
  0
SEQEND
  8
1
  0
ENDBLK
  8
0
  0
BLOCK
  8
0
  2
TRICONCIRCLE
 70
0
 10
0
 20
0
  0
CIRCLE
  8
1
 10
0
 20
0
 40
0.5
  0
ENDBLK
  8
0
  0
BLOCK
  8
0
  2
LCBP0
 70
0
 10
0
 20
0
  0
LINE
  8
1
 10
0
 20
-0.46875
 11
0
 21
0.46875
  0
ENDBLK
  8
0
  0
BLOCK
  8
0
  2
LCBP1
 70
0
 10
0
 20
0
  0
LINE
  8
1
 10
0
 20
-0.625
 11
0
 21
0.625
  0
ENDBLK
  8
0
  0
BLOCK
  8
0
  2
LCBP2
 70
0
 10
0
 20
0
  0
LINE
  8
1
 10
0
 20
-0.9375
 11
0
 21
0.9375
  0
ENDBLK
  8
0
  0
BLOCK
  8
0
  2
LCA1
 70
0
 10
0
 20
0
  0
SOLID
  8
1
 62
7 
 10
0
 20
0
 11
-1.4
 21
-0.275
 12
-1.4
 22
0.275
 13
-1.4
 23
0.275
  0
ENDBLK
  8
0
  0
BLOCK
  8
0
  2
LCA2
 70
0
 10
0
 20
0
  0
SOLID
  8
1
 62
7 
 10
0
 20
0
 11
-1.65
 21
-0.525
 12
-1.65
 22
0.525
 13
-1.65
 23
0.525
  0
ENDBLK
  8
0
  0
BLOCK
  8
0
  2
LCA3
 70
0
 10
0
 20
0
  0
SOLID
  8
1
 62
7 
 10
0
 20
0
 11
-2.15
 21
-1.15
 12
-2.15
 22
1.15
 13
-2.15
 23
1.15
  0
ENDBLK
  8
0
  0
BLOCK
  8
0
  2
LCA1R
 70
0
 10
0
 20
0
  0
SOLID
  8
1
 62
7 
 10
0
 20
0
 11
1.4
 21
-0.275
 12
1.4
 22
0.275
 13
1.4
 23
0.275
  0
ENDBLK
  8
0
  0
BLOCK
  8
0
  2
LCA2R
 70
0
 10
0
 20
0
  0
SOLID
  8
1
 62
7 
 10
0
 20
0
 11
1.65
 21
-0.525
 12
1.65
 22
0.525
 13
1.65
 23
0.525
  0
ENDBLK
  8
0
  0
BLOCK
  8
0
  2
LCA3R
 70
0
 10
0
 20
0
  0
SOLID
  8
1
 62
7 
 10
0
 20
0
 11
2.15
 21
-1.15
 12
2.15
 22
1.15
 13
2.15
 23
1.15
  0
ENDBLK
  8
0
  0
BLOCK
  8
0
  2
B69614_00991278
 70
0
 10
0
 20
0
  0
TEXT
  8
1
 40
2.475
 41
0.75
  1
12
  7
STANDARD
 72
2
 10
-7.69348163604736
 20
4.97915110588074
 11
-7.69348163604736
 21
4.97915110588074
  0
TEXT
  8
1
 40
2.475
 41
0.75
  1
3
  7
STANDARD
 73
3
 10
11.4766103744507
 20
-5.36040047009786
 11
11.4766103744507
 21
-5.36040047009786
  0
TEXT
  8
1
 40
2.475
 41
0.75
  1
1
  7
STANDARD
 72
2
 73
3
 10
7.20705369313558
 20
-5.36040047009786
 11
7.20705369313558
 21
-5.36040047009786
  0
LINE
  8
1
 10
7.34183203379313
 20
-4.48611629803975
 11
7.34183203379313
 21
-8.48611629803975
  0
LINE
  8
1
 10
7.34183203379313
 20
7.51388370196025
 11
7.34183203379313
 21
3.51388370196025
  0
LINE
  8
1
 10
11.3418320337931
 20
-4.48611629803975
 11
11.3418320337931
 21
-8.48611629803975
  0
TEXT
  8
1
 40
2.475
 41
0.75
  1
2
  7
STANDARD
 72
2
 10
7.20705369313558
 20
4.75138370196026
 11
7.20705369313558
 21
4.75138370196026
  0
CIRCLE
  8
1
 10
-9.80102701967211
 20
2.51391116657452
 40
1
  0
LINE
  8
1
 10
-7.80102701967211
 20
-4.48608883342548
 11
-9.52630589178009
 21
1.55238721895246
  0
LINE
  8
1
 10
-2.65816796620687
 20
-3.48611629803975
 11
-8.08672561133884
 21
-3.48611629803975
  0
LINE
  8
1
 10
-5.65816796620687
 20
-0.486116298039754
 11
-5.65816796620687
 21
1.51388370196025
  0
LINE
  8
1
 10
-6.90816796620687
 20
-1.48611629803975
 11
-8.65816202978231
 21
-1.48611629803975
  0
LINE
  8
1
 10
-2.65816796620687
 20
-1.48611629803975
 11
-4.40816796620687
 21
-1.48611629803975
  0
POLYLINE
  8
1
 66
1
  0
VERTEX
  8
1
 10
-6.90816796620687
 20
-1.48611629803975
  0
VERTEX
  8
1
 10
-6.40816796620687
 20
-1.48611629803975
  0
VERTEX
  8
1
 10
-5.65816796620687
 20
-2.78515440371625
  0
VERTEX
  8
1
 10
-4.90816796620687
 20
-1.48611629803975
  0
VERTEX
  8
1
 10
-4.40816796620687
 20
-1.48611629803975
  0
SEQEND
  8
1
  0
LINE
  8
1
 10
7.34183203379313
 20
-4.48611629803975
 11
7.34183203379313
 21
-2.48611629803975
  0
INSERT
  8
1
  2
LCBP1
 10
7.34183203379313
 20
-2.48611629803975
 50
90
  0
POLYLINE
  8
1
 66
1
  0
VERTEX
  8
1
 10
5.34183203379313
 20
3.51388370196025
  0
VERTEX
  8
1
 10
13.3418320337931
 20
3.51388370196025
  0
VERTEX
  8
1
 10
13.3418320337931
 20
-4.48611629803975
  0
VERTEX
  8
1
 10
5.34183203379313
 20
-4.48611629803975
  0
VERTEX
  8
1
 10
5.34183203379313
 20
3.51388370196025
  0
SEQEND
  8
1
  0
LINE
  8
1
 10
7.34183203379313
 20
3.51388370196025
 11
11.3418320337931
 21
-4.48611629803975
  0
INSERT
  8
1
  2
LCA1
 10
11.3418320337931
 20
-4.48611629803975
 50
-63.434948822922
  0
POLYLINE
  8
1
 66
1
  0
VERTEX
  8
1
 10
-2.65816796620687
 20
3.51388370196025
  0
VERTEX
  8
1
 10
5.34183203379313
 20
3.51388370196025
  0
VERTEX
  8
1
 10
5.34183203379313
 20
-4.48611629803975
  0
VERTEX
  8
1
 10
-2.65816796620687
 20
-4.48611629803975
  0
VERTEX
  8
1
 10
-2.65816796620687
 20
3.51388370196025
  0
SEQEND
  8
1
  0
LINE
  8
1
 10
3.34183203379313
 20
-4.48611629803975
 11
3.34183203379313
 21
-2.48611629803975
  0
INSERT
  8
1
  2
LCBP1
 10
3.34183203379313
 20
-2.48611629803975
 50
90
  0
LINE
  8
1
 10
-0.658167966206868
 20
-4.48611629803975
 11
-0.658167966206868
 21
3.51388370196025
  0
INSERT
  8
1
  2
LCA1
 10
-0.658167966206868
 20
3.51388370196025
 50
90
  0
CIRCLE
  8
CONNECTIONS
 10
7.34183203379313
 20
7.51388370196025
 40
0
  0
CIRCLE
  8
CONNECTIONS
 10
7.34183203379313
 20
-8.48611629803975
 40
0
  0
CIRCLE
  8
CONNECTIONS
 10
11.3418320337931
 20
-8.48611629803975
 40
0
  0
ENDBLK
  8
0
  0
ENDSEC
  0
SECTION
  2
ENTITIES
  0
INSERT
  8
1
  2
B69614_00991278
 10
13.3418320337931
 20
8.48611629803975
  0
ENDSEC
  0
EOF
