  0
SECTION
  2
HEADER
  9
$LIMMIN
 10
0
 20
0
  9
$LIMMAX
 10
52.5
 20
74.25
  9
$EXTMIN
 10
0
 20
36.9206892456495
  9
$EXTMAX
 10
0
 20
14.9095681316374
  0
ENDSEC
  0
SECTION
  2
TABLES
  0
TABLE
  2
LTYPE
 70
9
  0
LTYPE
  2
CONTINUOUS
 70
64
  3
Solid line
 72
65
 73
0
 40
0
  0
LTYPE
  2
DASHED
 70
64
  3
__ __ __ __ __ __ __ __ __
 72
65
 73
2
 40
0.75
 49
0.5
 49
-0.25
  0
LTYPE
  2
DOT
 70
64
  3
...........................
 72
65
 73
2
 40
0.25
 49
0
 49
-0.25
  0
LTYPE
  2
DASHDOT
 70
64
  3
__ . __ . __ . __ . __ . __ . 
 72
65
 73
4
 40
1
 49
0.5
 49
-0.25
 49
0
 49
-0.25
  0
ENDTAB
  0
TABLE
  2
LAYER
 70
10
  0
LAYER
  2
1
 70
0
 62
7
  6
CONTINUOUS
  0
LAYER
  2
CONNECTIONS
 70
0
 62
-7
  6
CONTINUOUS
  0
ENDTAB
  0
ENDSEC
  0
SECTION
  2
BLOCKS
  0
BLOCK
  8
0
  2
TRICON
 70
0
 10
0
 20
0
  0
POLYLINE
  8
1
 70
1
 66
1
 40
0.5
 41
0.5
  0
VERTEX
  8
1
 10
-0.25
 20
0
 42
1
  0
VERTEX
  8
1
 10
0.25
 20
0
 42
1
  0
SEQEND
  8
1
  0
ENDBLK
  8
0
  0
BLOCK
  8
0
  2
TRICONSMALL
 70
0
 10
0
 20
0
  0
POLYLINE
  8
1
 70
1
 66
1
 40
0.25
 41
0.25
  0
VERTEX
  8
1
 10
-0.125
 20
0
 42
1
  0
VERTEX
  8
1
 10
0.125
 20
0
 42
1
  0
SEQEND
  8
1
  0
ENDBLK
  8
0
  0
BLOCK
  8
0
  2
TRICONCIRCLE
 70
0
 10
0
 20
0
  0
CIRCLE
  8
1
 10
0
 20
0
 40
0.5
  0
ENDBLK
  8
0
  0
BLOCK
  8
0
  2
LCBP0
 70
0
 10
0
 20
0
  0
LINE
  8
1
 10
0
 20
-0.46875
 11
0
 21
0.46875
  0
ENDBLK
  8
0
  0
BLOCK
  8
0
  2
LCBP1
 70
0
 10
0
 20
0
  0
LINE
  8
1
 10
0
 20
-0.625
 11
0
 21
0.625
  0
ENDBLK
  8
0
  0
BLOCK
  8
0
  2
LCBP2
 70
0
 10
0
 20
0
  0
LINE
  8
1
 10
0
 20
-0.9375
 11
0
 21
0.9375
  0
ENDBLK
  8
0
  0
BLOCK
  8
0
  2
LCA1
 70
0
 10
0
 20
0
  0
SOLID
  8
1
 62
7 
 10
0
 20
0
 11
-1.4
 21
-0.275
 12
-1.4
 22
0.275
 13
-1.4
 23
0.275
  0
ENDBLK
  8
0
  0
BLOCK
  8
0
  2
LCA2
 70
0
 10
0
 20
0
  0
SOLID
  8
1
 62
7 
 10
0
 20
0
 11
-1.65
 21
-0.525
 12
-1.65
 22
0.525
 13
-1.65
 23
0.525
  0
ENDBLK
  8
0
  0
BLOCK
  8
0
  2
LCA3
 70
0
 10
0
 20
0
  0
SOLID
  8
1
 62
7 
 10
0
 20
0
 11
-2.15
 21
-1.15
 12
-2.15
 22
1.15
 13
-2.15
 23
1.15
  0
ENDBLK
  8
0
  0
BLOCK
  8
0
  2
LCA1R
 70
0
 10
0
 20
0
  0
SOLID
  8
1
 62
7 
 10
0
 20
0
 11
1.4
 21
-0.275
 12
1.4
 22
0.275
 13
1.4
 23
0.275
  0
ENDBLK
  8
0
  0
BLOCK
  8
0
  2
LCA2R
 70
0
 10
0
 20
0
  0
SOLID
  8
1
 62
7 
 10
0
 20
0
 11
1.65
 21
-0.525
 12
1.65
 22
0.525
 13
1.65
 23
0.525
  0
ENDBLK
  8
0
  0
BLOCK
  8
0
  2
LCA3R
 70
0
 10
0
 20
0
  0
SOLID
  8
1
 62
7 
 10
0
 20
0
 11
2.15
 21
-1.15
 12
2.15
 22
1.15
 13
2.15
 23
1.15
  0
ENDBLK
  8
0
  0
BLOCK
  8
0
  2
B2436_00991270
 70
0
 10
0
 20
0
  0
LINE
  8
1
 10
-1.46034462282475
 20
-3.4547840658187
 11
-1.46034462282475
 21
-7.4547840658187
  0
LINE
  8
1
 10
-17.4603446228247
 20
-3.4547840658187
 11
-17.4603446228247
 21
-7.4547840658187
  0
LINE
  8
1
 10
-0.460344622824749
 20
4.5452159341813
 11
-0.460344622824749
 21
1.5452159341813
  0
LINE
  8
1
 10
-0.460344622824749
 20
-0.4547840658187
 11
-0.460344622824749
 21
-3.4547840658187
  0
LINE
  8
1
 10
-18.4603446228247
 20
4.5452159341813
 11
-18.4603446228247
 21
-3.4547840658187
  0
LINE
  8
1
 10
-18.4603446228247
 20
4.5452159341813
 11
-0.460344622824749
 21
4.5452159341813
  0
LINE
  8
1
 10
-18.4603446228247
 20
-3.4547840658187
 11
-0.460344622824749
 21
-3.4547840658187
  0
POLYLINE
  8
1
 66
1
  0
VERTEX
  8
1
 10
-16.4603446228247
 20
4.5452159341813
  0
VERTEX
  8
1
 10
-12.4603446228247
 20
4.5452159341813
  0
VERTEX
  8
1
 10
-12.4603446228247
 20
-3.4547840658187
  0
VERTEX
  8
1
 10
-16.4603446228247
 20
-3.4547840658187
  0
VERTEX
  8
1
 10
-16.4603446228247
 20
4.5452159341813
  0
SEQEND
  8
1
  0
LINE
  8
1
 10
-13.4603446228247
 20
-1.9547840658187
 11
-13.4603446228247
 21
-0.9547840658187
  0
SOLID
  8
1
 10
-13.4603446228247
 20
-0.9547840658187
 11
-13.4603446228247
 21
-1.9547840658187
 12
-15.4603446228247
 22
-1.9547840658187
 13
-15.4603446228247
 23
-1.9547840658187
  0
SOLID
  8
1
 10
-15.4603446228247
 20
3.0452159341813
 11
-13.4603446228247
 21
3.0452159341813
 12
-13.4603446228247
 22
2.0452159341813
 13
-13.4603446228247
 23
2.0452159341813
  0
SOLID
  8
1
 10
-14.4603446228247
 20
-0.9547840658187
 11
-13.4603446228247
 21
-0.9547840658187
 12
-15.4603446228247
 22
-1.9547840658187
 13
-15.4603446228247
 23
-1.9547840658187
  0
SOLID
  8
1
 10
-15.4603446228247
 20
3.0452159341813
 11
-13.4603446228247
 21
2.0452159341813
 12
-14.4603446228247
 22
2.0452159341813
 13
-14.4603446228247
 23
2.0452159341813
  0
SOLID
  8
1
 10
-14.4603446228247
 20
2.0452159341813
 11
-14.4603446228247
 21
-0.9547840658187
 12
-15.4603446228247
 22
-1.9547840658187
 13
-15.4603446228247
 23
-1.9547840658187
  0
SOLID
  8
1
 10
-15.4603446228247
 20
-1.9547840658187
 11
-15.4603446228247
 21
3.0452159341813
 12
-14.4603446228247
 22
2.0452159341813
 13
-14.4603446228247
 23
2.0452159341813
  0
ARC
  8
1
 10
12.1534224020308
 20
4.19083108566471
 40
3.7649200507776
 50
324.081535737364
 51
60.1047637252115
  0
INSERT
  8
1
  2
LCA1
 10
13.972667887856
 20
7.48703630546702
 50
150.604763725211
  0
INSERT
  8
1
  2
LCA1R
 10
15.2024528172625
 20
1.98220334072002
 50
54.5815357373639
  0
LINE
  8
1
 10
-0.460344622824749
 20
4.5452159341813
 11
13.5746595790389
 21
4.5452159341813
  0
POLYLINE
  8
1
 66
1
  0
VERTEX
  8
1
 10
18.4603446228247
 20
5.76332340706255
  0
VERTEX
  8
1
 10
12.1534224020308
 20
4.1908310856647
  0
VERTEX
  8
1
 10
12.75822714103
 20
1.76509176997472
  0
VERTEX
  8
1
 10
8.039027610651
 20
0.588463176046824
  0
SEQEND
  8
1
  0
POLYLINE
  8
1
 66
1
  0
VERTEX
  8
1
 10
-12.4603446228247
 20
1.5452159341813
  0
VERTEX
  8
1
 10
5.42160553930175
 20
1.5452159341813
  0
SEQEND
  8
1
  0
CIRCLE
  8
1
 10
6.53965537717525
 20
0.5452159341813
 40
1.5
  0
POLYLINE
  8
1
 66
1
  0
VERTEX
  8
1
 10
5.53965537717525
 20
-0.4547840658187
  0
VERTEX
  8
1
 10
-12.4603446228247
 20
-0.4547840658187
  0
SEQEND
  8
1
  0
CIRCLE
  8
CONNECTIONS
 10
-17.4603446228247
 20
-7.4547840658187
 40
0
  0
CIRCLE
  8
CONNECTIONS
 10
-1.46034462282475
 20
-7.4547840658187
 40
0
  0
ENDBLK
  8
0
  0
ENDSEC
  0
SECTION
  2
ENTITIES
  0
INSERT
  8
1
  2
B2436_00991270
 10
18.4603446228247
 20
7.4547840658187
  0
ENDSEC
  0
EOF
