  0
SECTION
  2
HEADER
  9
$LIMMIN
 10
0
 20
0
  9
$LIMMAX
 10
52.5
 20
74.25
  9
$EXTMIN
 10
0
 20
40
  9
$EXTMAX
 10
0
 20
12
  0
ENDSEC
  0
SECTION
  2
TABLES
  0
TABLE
  2
LTYPE
 70
9
  0
LTYPE
  2
CONTINUOUS
 70
64
  3
Solid line
 72
65
 73
0
 40
0
  0
LTYPE
  2
DASHED
 70
64
  3
__ __ __ __ __ __ __ __ __
 72
65
 73
2
 40
0.75
 49
0.5
 49
-0.25
  0
LTYPE
  2
DOT
 70
64
  3
...........................
 72
65
 73
2
 40
0.25
 49
0
 49
-0.25
  0
LTYPE
  2
DASHDOT
 70
64
  3
__ . __ . __ . __ . __ . __ . 
 72
65
 73
4
 40
1
 49
0.5
 49
-0.25
 49
0
 49
-0.25
  0
ENDTAB
  0
TABLE
  2
LAYER
 70
10
  0
LAYER
  2
1
 70
0
 62
7
  6
CONTINUOUS
  0
LAYER
  2
CONNECTIONS
 70
0
 62
-7
  6
CONTINUOUS
  0
ENDTAB
  0
ENDSEC
  0
SECTION
  2
BLOCKS
  0
BLOCK
  8
0
  2
TRICON
 70
0
 10
0
 20
0
  0
POLYLINE
  8
1
 70
1
 66
1
 40
0.5
 41
0.5
  0
VERTEX
  8
1
 10
-0.25
 20
0
 42
1
  0
VERTEX
  8
1
 10
0.25
 20
0
 42
1
  0
SEQEND
  8
1
  0
ENDBLK
  8
0
  0
BLOCK
  8
0
  2
TRICONSMALL
 70
0
 10
0
 20
0
  0
POLYLINE
  8
1
 70
1
 66
1
 40
0.25
 41
0.25
  0
VERTEX
  8
1
 10
-0.125
 20
0
 42
1
  0
VERTEX
  8
1
 10
0.125
 20
0
 42
1
  0
SEQEND
  8
1
  0
ENDBLK
  8
0
  0
BLOCK
  8
0
  2
TRICONCIRCLE
 70
0
 10
0
 20
0
  0
CIRCLE
  8
1
 10
0
 20
0
 40
0.5
  0
ENDBLK
  8
0
  0
BLOCK
  8
0
  2
LCBP0
 70
0
 10
0
 20
0
  0
LINE
  8
1
 10
0
 20
-0.46875
 11
0
 21
0.46875
  0
ENDBLK
  8
0
  0
BLOCK
  8
0
  2
LCBP1
 70
0
 10
0
 20
0
  0
LINE
  8
1
 10
0
 20
-0.625
 11
0
 21
0.625
  0
ENDBLK
  8
0
  0
BLOCK
  8
0
  2
LCBP2
 70
0
 10
0
 20
0
  0
LINE
  8
1
 10
0
 20
-0.9375
 11
0
 21
0.9375
  0
ENDBLK
  8
0
  0
BLOCK
  8
0
  2
LCA1
 70
0
 10
0
 20
0
  0
SOLID
  8
1
 62
7 
 10
0
 20
0
 11
-1.4
 21
-0.275
 12
-1.4
 22
0.275
 13
-1.4
 23
0.275
  0
ENDBLK
  8
0
  0
BLOCK
  8
0
  2
LCA2
 70
0
 10
0
 20
0
  0
SOLID
  8
1
 62
7 
 10
0
 20
0
 11
-1.65
 21
-0.525
 12
-1.65
 22
0.525
 13
-1.65
 23
0.525
  0
ENDBLK
  8
0
  0
BLOCK
  8
0
  2
LCA3
 70
0
 10
0
 20
0
  0
SOLID
  8
1
 62
7 
 10
0
 20
0
 11
-2.15
 21
-1.15
 12
-2.15
 22
1.15
 13
-2.15
 23
1.15
  0
ENDBLK
  8
0
  0
BLOCK
  8
0
  2
LCA1R
 70
0
 10
0
 20
0
  0
SOLID
  8
1
 62
7 
 10
0
 20
0
 11
1.4
 21
-0.275
 12
1.4
 22
0.275
 13
1.4
 23
0.275
  0
ENDBLK
  8
0
  0
BLOCK
  8
0
  2
LCA2R
 70
0
 10
0
 20
0
  0
SOLID
  8
1
 62
7 
 10
0
 20
0
 11
1.65
 21
-0.525
 12
1.65
 22
0.525
 13
1.65
 23
0.525
  0
ENDBLK
  8
0
  0
BLOCK
  8
0
  2
LCA3R
 70
0
 10
0
 20
0
  0
SOLID
  8
1
 62
7 
 10
0
 20
0
 11
2.15
 21
-1.15
 12
2.15
 22
1.15
 13
2.15
 23
1.15
  0
ENDBLK
  8
0
  0
BLOCK
  8
0
  2
B1767_00991202
 70
0
 10
0
 20
0
  0
LINE
  8
1
 10
-3
 20
-2
 11
-3
 21
-6
  0
POLYLINE
  8
1
 66
1
  0
VERTEX
  8
1
 10
12
 20
-2
  0
VERTEX
  8
1
 10
13
 20
-4
  0
VERTEX
  8
1
 10
14
 20
-2
  0
SEQEND
  8
1
  0
POLYLINE
  8
1
 66
1
  0
VERTEX
  8
1
 10
2
 20
-2
  0
VERTEX
  8
1
 10
4
 20
6
  0
VERTEX
  8
1
 10
6
 20
-2
  0
VERTEX
  8
1
 10
8
 20
6
  0
VERTEX
  8
1
 10
10
 20
-2
  0
VERTEX
  8
1
 10
12
 20
6
  0
VERTEX
  8
1
 10
14
 20
-2
  0
SEQEND
  8
1
  0
LINE
  8
1
 10
1
 20
-0.5
 11
1
 21
0.5
  0
SOLID
  8
1
 10
1
 20
0.5
 11
1
 21
-0.5
 12
-1
 22
-0.5
 13
-1
 23
-0.5
  0
SOLID
  8
1
 10
-1
 20
4.5
 11
1
 21
4.5
 12
1
 22
3.5
 13
1
 23
3.5
  0
SOLID
  8
1
 10
0
 20
0.5
 11
1
 21
0.5
 12
-1
 22
-0.5
 13
-1
 23
-0.5
  0
SOLID
  8
1
 10
-1
 20
4.5
 11
1
 21
3.5
 12
0
 22
3.5
 13
0
 23
3.5
  0
SOLID
  8
1
 10
0
 20
3.5
 11
0
 21
0.5
 12
-1
 22
-0.5
 13
-1
 23
-0.5
  0
SOLID
  8
1
 10
-1
 20
-0.5
 11
-1
 21
4.5
 12
0
 22
3.5
 13
0
 23
3.5
  0
POLYLINE
  8
1
 66
1
  0
VERTEX
  8
1
 10
-2
 20
6
  0
VERTEX
  8
1
 10
2
 20
6
  0
VERTEX
  8
1
 10
2
 20
-2
  0
VERTEX
  8
1
 10
-2
 20
-2
  0
VERTEX
  8
1
 10
-2
 20
6
  0
SEQEND
  8
1
  0
LINE
  8
1
 10
-4
 20
6
 11
-4
 21
3
  0
LINE
  8
1
 10
-4
 20
1
 11
-4
 21
-2
  0
LINE
  8
1
 10
14
 20
6
 11
14
 21
3
  0
LINE
  8
1
 10
14
 20
1
 11
14
 21
-2
  0
LINE
  8
1
 10
-4
 20
6
 11
14
 21
6
  0
LINE
  8
1
 10
-4
 20
-2
 11
14
 21
-2
  0
POLYLINE
  8
1
 66
1
  0
VERTEX
  8
1
 10
-2
 20
3
  0
VERTEX
  8
1
 10
-20
 20
3
  0
VERTEX
  8
1
 10
-20
 20
1
  0
VERTEX
  8
1
 10
-2
 20
1
  0
SEQEND
  8
1
  0
POLYLINE
  8
1
 66
1
  0
VERTEX
  8
1
 10
2
 20
3
  0
VERTEX
  8
1
 10
20
 20
3
  0
VERTEX
  8
1
 10
20
 20
1
  0
VERTEX
  8
1
 10
2
 20
1
  0
SEQEND
  8
1
  0
CIRCLE
  8
CONNECTIONS
 10
-3
 20
-6
 40
0
  0
ENDBLK
  8
0
  0
ENDSEC
  0
SECTION
  2
ENTITIES
  0
INSERT
  8
1
  2
B1767_00991202
 10
20
 20
6
  0
ENDSEC
  0
EOF
