  0
SECTION
  2
HEADER
  9
$LIMMIN
 10
0
 20
0
  9
$LIMMAX
 10
52.5
 20
74.25
  9
$EXTMIN
 10
0
 20
44.5875001748403
  9
$EXTMAX
 10
0
 20
19.9500993235621
  0
ENDSEC
  0
SECTION
  2
TABLES
  0
TABLE
  2
LTYPE
 70
9
  0
LTYPE
  2
CONTINUOUS
 70
64
  3
Solid line
 72
65
 73
0
 40
0
  0
LTYPE
  2
DASHED
 70
64
  3
__ __ __ __ __ __ __ __ __
 72
65
 73
2
 40
0.75
 49
0.5
 49
-0.25
  0
LTYPE
  2
DOT
 70
64
  3
...........................
 72
65
 73
2
 40
0.25
 49
0
 49
-0.25
  0
LTYPE
  2
DASHDOT
 70
64
  3
__ . __ . __ . __ . __ . __ . 
 72
65
 73
4
 40
1
 49
0.5
 49
-0.25
 49
0
 49
-0.25
  0
ENDTAB
  0
TABLE
  2
LAYER
 70
10
  0
LAYER
  2
1
 70
0
 62
7
  6
CONTINUOUS
  0
LAYER
  2
CONNECTIONS
 70
0
 62
-7
  6
CONTINUOUS
  0
ENDTAB
  0
ENDSEC
  0
SECTION
  2
BLOCKS
  0
BLOCK
  8
0
  2
TRICON
 70
0
 10
0
 20
0
  0
POLYLINE
  8
1
 70
1
 66
1
 40
0.5
 41
0.5
  0
VERTEX
  8
1
 10
-0.25
 20
0
 42
1
  0
VERTEX
  8
1
 10
0.25
 20
0
 42
1
  0
SEQEND
  8
1
  0
ENDBLK
  8
0
  0
BLOCK
  8
0
  2
TRICONSMALL
 70
0
 10
0
 20
0
  0
POLYLINE
  8
1
 70
1
 66
1
 40
0.25
 41
0.25
  0
VERTEX
  8
1
 10
-0.125
 20
0
 42
1
  0
VERTEX
  8
1
 10
0.125
 20
0
 42
1
  0
SEQEND
  8
1
  0
ENDBLK
  8
0
  0
BLOCK
  8
0
  2
TRICONCIRCLE
 70
0
 10
0
 20
0
  0
CIRCLE
  8
1
 10
0
 20
0
 40
0.5
  0
ENDBLK
  8
0
  0
BLOCK
  8
0
  2
LCBP0
 70
0
 10
0
 20
0
  0
LINE
  8
1
 10
0
 20
-0.46875
 11
0
 21
0.46875
  0
ENDBLK
  8
0
  0
BLOCK
  8
0
  2
LCBP1
 70
0
 10
0
 20
0
  0
LINE
  8
1
 10
0
 20
-0.625
 11
0
 21
0.625
  0
ENDBLK
  8
0
  0
BLOCK
  8
0
  2
LCBP2
 70
0
 10
0
 20
0
  0
LINE
  8
1
 10
0
 20
-0.9375
 11
0
 21
0.9375
  0
ENDBLK
  8
0
  0
BLOCK
  8
0
  2
LCA1
 70
0
 10
0
 20
0
  0
SOLID
  8
1
 62
7 
 10
0
 20
0
 11
-1.4
 21
-0.275
 12
-1.4
 22
0.275
 13
-1.4
 23
0.275
  0
ENDBLK
  8
0
  0
BLOCK
  8
0
  2
LCA2
 70
0
 10
0
 20
0
  0
SOLID
  8
1
 62
7 
 10
0
 20
0
 11
-1.65
 21
-0.525
 12
-1.65
 22
0.525
 13
-1.65
 23
0.525
  0
ENDBLK
  8
0
  0
BLOCK
  8
0
  2
LCA3
 70
0
 10
0
 20
0
  0
SOLID
  8
1
 62
7 
 10
0
 20
0
 11
-2.15
 21
-1.15
 12
-2.15
 22
1.15
 13
-2.15
 23
1.15
  0
ENDBLK
  8
0
  0
BLOCK
  8
0
  2
LCA1R
 70
0
 10
0
 20
0
  0
SOLID
  8
1
 62
7 
 10
0
 20
0
 11
1.4
 21
-0.275
 12
1.4
 22
0.275
 13
1.4
 23
0.275
  0
ENDBLK
  8
0
  0
BLOCK
  8
0
  2
LCA2R
 70
0
 10
0
 20
0
  0
SOLID
  8
1
 62
7 
 10
0
 20
0
 11
1.65
 21
-0.525
 12
1.65
 22
0.525
 13
1.65
 23
0.525
  0
ENDBLK
  8
0
  0
BLOCK
  8
0
  2
LCA3R
 70
0
 10
0
 20
0
  0
SOLID
  8
1
 62
7 
 10
0
 20
0
 11
2.15
 21
-1.15
 12
2.15
 22
1.15
 13
2.15
 23
1.15
  0
ENDBLK
  8
0
  0
BLOCK
  8
0
  2
B1827_00991165
 70
0
 10
0
 20
0
  0
LINE
  8
1
 10
-4.87660463651021
 20
-5.0249500998004
 11
-2.87660463651021
 21
-5.0249500998004
  0
LINE
  8
1
 10
-4.87660463651021
 20
-1.0249500998004
 11
-2.87660463651021
 21
-1.0249500998004
  0
LINE
  8
1
 10
-4.87660463651021
 20
2.9750499001996
 11
-2.87660463651021
 21
2.9750499001996
  0
LINE
  8
1
 10
-4.87660463651021
 20
6.9750499001996
 11
-2.87660463651021
 21
6.9750499001996
  0
LINE
  8
1
 10
-18.8766046365102
 20
0.975049900199603
 11
-11.8766046365102
 21
7.9750499001996
  0
POLYLINE
  8
1
 66
1
  0
VERTEX
  8
1
 10
-18.8766046365102
 20
7.9750499001996
  0
VERTEX
  8
1
 10
-4.87660463651021
 20
7.9750499001996
  0
VERTEX
  8
1
 10
-4.87660463651021
 20
-6.0249500998004
  0
VERTEX
  8
1
 10
-18.8766046365102
 20
-6.0249500998004
  0
VERTEX
  8
1
 10
-18.8766046365102
 20
7.9750499001996
  0
SEQEND
  8
1
  0
LINE
  8
1
 10
-2.87660463651021
 20
-5.0249500998004
 11
-1.87660463651021
 21
-5.0249500998004
  0
SOLID
  8
1
 10
-1.87660463651021
 20
-4.7749500998004
 11
-0.376604636510213
 21
-4.7749500998004
 12
-1.87660463651021
 22
-5.2749500998004
 13
-0.376604636510213
 23
-5.2749500998004
  0
SOLID
  8
1
 10
-0.376604636510213
 20
-5.2749500998004
 11
-1.87660463651021
 21
-5.2749500998004
 12
-1.87660463651021
 22
-5.2749500998004
 13
-1.87660463651021
 23
-4.7749500998004
  0
LINE
  8
1
 10
-2.87660463651021
 20
-1.0249500998004
 11
-1.87660463651021
 21
-1.0249500998004
  0
SOLID
  8
1
 10
-1.87660463651021
 20
-0.774950099800397
 11
-0.376604636510213
 21
-0.774950099800397
 12
-1.87660463651021
 22
-1.2749500998004
 13
-0.376604636510213
 23
-1.2749500998004
  0
SOLID
  8
1
 10
-0.376604636510213
 20
-1.2749500998004
 11
-1.87660463651021
 21
-1.2749500998004
 12
-1.87660463651021
 22
-1.2749500998004
 13
-1.87660463651021
 23
-0.774950099800397
  0
SOLID
  8
1
 10
-1.87660463651021
 20
3.2250499001996
 11
-0.376604636510213
 21
3.2250499001996
 12
-1.87660463651021
 22
2.7250499001996
 13
-0.376604636510213
 23
2.7250499001996
  0
SOLID
  8
1
 10
-0.376604636510213
 20
2.7250499001996
 11
-1.87660463651021
 21
2.7250499001996
 12
-1.87660463651021
 22
2.7250499001996
 13
-1.87660463651021
 23
3.2250499001996
  0
LINE
  8
1
 10
-2.87660463651021
 20
2.9750499001996
 11
-1.87660463651021
 21
2.9750499001996
  0
LINE
  8
1
 10
-2.87660463651021
 20
6.9750499001996
 11
-1.87660463651021
 21
6.9750499001996
  0
SOLID
  8
1
 10
-1.87660463651021
 20
7.2250499001996
 11
-0.376604636510213
 21
7.2250499001996
 12
-1.87660463651021
 22
6.7250499001996
 13
-0.376604636510213
 23
6.7250499001996
  0
SOLID
  8
1
 10
-0.376604636510213
 20
6.7250499001996
 11
-1.87660463651021
 21
6.7250499001996
 12
-1.87660463651021
 22
6.7250499001996
 13
-1.87660463651021
 23
7.2250499001996
  0
TEXT
  8
1
 40
1.8
 41
0.75
  1
P
  7
STANDARD
 72
2
 10
-19.4594589074453
 20
5.64979027826153
 11
-19.4594589074453
 21
5.64979027826153
  0
LINE
  8
1
 10
-18.8766046365102
 20
5.4750499001996
 11
-17.8766046365102
 21
4.9750499001996
  0
LINE
  8
1
 10
-17.8766046365102
 20
4.9750499001996
 11
-18.8766046365102
 21
4.4750499001996
  0
LINE
  8
1
 10
-18.8766046365102
 20
5.4750499001996
 11
-18.8766046365102
 21
4.4750499001996
  0
LINE
  8
1
 10
-21.8766046365102
 20
4.9750499001996
 11
-18.8766046365102
 21
4.9750499001996
  0
LINE
  8
1
 10
0.123395363489787
 20
6.9750499001996
 11
1.12339536348979
 21
6.9750499001996
  0
ARC
  8
1
 10
-0.876604636510213
 20
6.9750499001996
 40
1
 50
270
 51
90
  0
LINE
  8
1
 10
0.123395363489787
 20
-5.0249500998004
 11
1.12339536348979
 21
-5.0249500998004
  0
ARC
  8
1
 10
-0.876604636510213
 20
-5.0249500998004
 40
1
 50
270
 51
90
  0
LINE
  8
1
 10
0.123395363489787
 20
-1.0249500998004
 11
1.12339536348979
 21
-1.0249500998004
  0
ARC
  8
1
 10
-0.876604636510213
 20
-1.0249500998004
 40
1
 50
270
 51
90
  0
LINE
  8
1
 10
0.123395363489787
 20
2.9750499001996
 11
1.12339536348979
 21
2.9750499001996
  0
ARC
  8
1
 10
-0.876604636510213
 20
2.9750499001996
 40
1
 50
270
 51
90
  0
TEXT
  8
1
 40
0.675
 41
0.75
  1
L
  7
STANDARD
 10
7.66494100093842
 20
-0.312710397257775
  0
TEXT
  8
1
 40
0.675
 41
0.75
  1
L
  7
STANDARD
 10
8.66494100093841
 20
3.68728960274223
  0
TEXT
  8
1
 40
1.8
 41
0.75
  1
R
  7
STANDARD
 10
5.12758231163025
 20
-0.124950099800397
  0
TEXT
  8
1
 40
1.8
 41
0.75
  1
R
  7
STANDARD
 10
6.12758231163025
 20
3.8750499001996
  0
LINE
  8
1
 10
10.323426803153
 20
-5.0249500998004
 11
11.9233953634898
 21
-5.0249500998004
  0
LINE
  8
1
 10
12.3233953634898
 20
-5.0249500998004
 11
14.1233953634898
 21
-5.0249500998004
  0
LINE
  8
1
 10
1.12339536348979
 20
-5.0249500998004
 11
9.92339536348978
 21
-5.0249500998004
  0
CIRCLE
  8
1
 10
12.1233953634898
 20
-5.0249500998004
 40
0.2
  0
CIRCLE
  8
1
 10
10.1233953634898
 20
-5.0249500998004
 40
0.2
  0
LINE
  8
1
 10
1.12339536348979
 20
6.9750499001996
 11
14.1233953634898
 21
6.9750499001996
  0
LINE
  8
1
 10
10.1233953634898
 20
2.9750499001996
 11
12.1233953634898
 21
2.9750499001996
  0
LINE
  8
1
 10
1.12339536348979
 20
2.9750499001996
 11
4.12339536348979
 21
2.9750499001996
  0
LINE
  8
1
 10
6.12339536348979
 20
2.9750499001996
 11
4.12339536348979
 21
2.9750499001996
  0
POLYLINE
  8
1
 66
1
  0
VERTEX
  8
1
 10
6.12339536348979
 20
3.4750499001996
  0
VERTEX
  8
1
 10
10.1233953634898
 20
3.4750499001996
  0
VERTEX
  8
1
 10
10.1233953634898
 20
2.4750499001996
  0
VERTEX
  8
1
 10
6.12339536348979
 20
2.4750499001996
  0
VERTEX
  8
1
 10
6.12339536348979
 20
3.4750499001996
  0
SEQEND
  8
1
  0
LINE
  8
1
 10
12.1233953634898
 20
-4.8249500998004
 11
12.1233953634898
 21
2.9750499001996
  0
LINE
  8
1
 10
10.1233953634898
 20
-4.8249500998004
 11
10.1233953634898
 21
-1.0249500998004
  0
LINE
  8
1
 10
1.12339536348979
 20
-1.0249500998004
 11
3.12339536348979
 21
-1.0249500998004
  0
LINE
  8
1
 10
9.12339536348979
 20
-1.0249500998004
 11
10.1233953634898
 21
-1.0249500998004
  0
LINE
  8
1
 10
5.12339536348979
 20
-1.0249500998004
 11
3.12339536348979
 21
-1.0249500998004
  0
POLYLINE
  8
1
 66
1
  0
VERTEX
  8
1
 10
5.12339536348979
 20
-0.524950099800396
  0
VERTEX
  8
1
 10
9.12339536348979
 20
-0.524950099800396
  0
VERTEX
  8
1
 10
9.12339536348979
 20
-1.5249500998004
  0
VERTEX
  8
1
 10
5.12339536348979
 20
-1.5249500998004
  0
VERTEX
  8
1
 10
5.12339536348979
 20
-0.524950099800396
  0
SEQEND
  8
1
  0
LINE
  8
1
  6
DOT
 10
-9.87660463651021
 20
4.9750499001996
 11
-7.27659574010134
 21
4.9750499001996
  0
SOLID
  8
1
 10
-9.37660463651021
 20
6.9750499001996
 11
-9.98605610872421
 21
6.47149364414057
 12
-9.37660463651021
 22
6.9750499001996
 13
-9.56203206064601
 23
6.20653401202397
  0
LINE
  8
1
 10
-11.3766046365102
 20
4.8750499001996
 11
-10.8766046365102
 21
4.4750499001996
  0
LINE
  8
1
 10
-11.3766046365102
 20
5.0750499001996
 11
-10.8766046365102
 21
5.4750499001996
  0
LINE
  8
1
 10
-11.8766046365102
 20
2.9750499001996
 11
-9.37660463651021
 21
6.9750499001996
  0
LINE
  8
1
 10
-11.3766046365102
 20
3.9750499001996
 11
-11.3766046365102
 21
2.9750499001996
  0
POLYLINE
  8
1
 66
1
  0
VERTEX
  8
1
 10
-12.8766046365102
 20
5.9750499001996
  0
VERTEX
  8
1
 10
-9.87660463651021
 20
5.9750499001996
  0
VERTEX
  8
1
 10
-9.87660463651021
 20
3.9750499001996
  0
VERTEX
  8
1
 10
-12.8766046365102
 20
3.9750499001996
  0
VERTEX
  8
1
 10
-12.8766046365102
 20
5.9750499001996
  0
SEQEND
  8
1
  0
LINE
  8
1
 10
-11.3766046365102
 20
5.3750499001996
 11
-11.3766046365102
 21
4.5750499001996
  0
LINE
  8
1
 10
-12.3766046365102
 20
4.9750499001996
 11
-11.3766046365102
 21
4.9750499001996
  0
LINE
  8
1
 10
-11.3766046365102
 20
5.9750499001996
 11
-11.3766046365102
 21
6.9750499001996
  0
LINE
  8
1
  6
DOT
 10
-12.8766046365102
 20
-1.0249500998004
 11
-9.27659501347729
 21
-1.0249500998004
  0
LINE
  8
1
 10
-14.3766046365102
 20
-1.1249500998004
 11
-13.8766046365102
 21
-1.5249500998004
  0
LINE
  8
1
 10
-14.3766046365102
 20
-0.924950099800397
 11
-13.8766046365102
 21
-0.524950099800397
  0
SOLID
  8
1
 10
-12.3766046365102
 20
0.975049900199603
 11
-12.9860561087242
 21
0.47149364414057
 12
-12.3766046365102
 22
0.975049900199603
 13
-12.562032060646
 23
0.20653401202397
  0
LINE
  8
1
 10
-14.8766046365102
 20
-3.0249500998004
 11
-12.3766046365102
 21
0.975049900199603
  0
LINE
  8
1
 10
-14.3766046365102
 20
-2.0249500998004
 11
-14.3766046365102
 21
-3.0249500998004
  0
LINE
  8
1
 10
-14.3766046365102
 20
-0.0249500998003972
 11
-14.3766046365102
 21
0.975049900199603
  0
POLYLINE
  8
1
 66
1
  0
VERTEX
  8
1
 10
-15.8766046365102
 20
-0.024950099800396
  0
VERTEX
  8
1
 10
-12.8766046365102
 20
-0.024950099800396
  0
VERTEX
  8
1
 10
-12.8766046365102
 20
-2.0249500998004
  0
VERTEX
  8
1
 10
-15.8766046365102
 20
-2.0249500998004
  0
VERTEX
  8
1
 10
-15.8766046365102
 20
-0.024950099800396
  0
SEQEND
  8
1
  0
LINE
  8
1
 10
-14.3766046365102
 20
-0.624950099800396
 11
-14.3766046365102
 21
-1.4249500998004
  0
LINE
  8
1
 10
-15.3766046365102
 20
-1.0249500998004
 11
-14.3766046365102
 21
-1.0249500998004
  0
TEXT
  8
1
 40
1.8
 41
0.75
  1
1
  7
STANDARD
 10
-4.47660463651021
 20
7.42452938475771
  0
TEXT
  8
1
 40
1.8
 41
0.75
  1
4
  7
STANDARD
 10
-4.47660463651021
 20
3.42452938475771
  0
TEXT
  8
1
 40
1.8
 41
0.75
  1
2
  7
STANDARD
 10
-4.47660463651021
 20
-0.575470615242291
  0
TEXT
  8
1
 40
1.8
 41
0.75
  1
3
  7
STANDARD
 10
-4.47660463651021
 20
-4.57547061524229
  0
TEXT
  8
1
 40
1.8
 41
0.75
  1
WH
  7
STANDARD
 10
-0.276604636510214
 20
-0.575470615242291
  0
TEXT
  8
1
 40
1.8
 41
0.75
  1
+24V
  7
STANDARD
 10
14.6064865589142
 20
6.14978964247866
  0
TEXT
  8
1
 40
1.8
 41
0.75
  1
0V
  7
STANDARD
 10
14.5264626344045
 20
-6.12495009980039
  0
TEXT
  8
1
 40
1.8
 41
0.75
  1
BU
  7
STANDARD
 10
0.123395363489787
 20
-4.57547061524229
  0
TEXT
  8
1
 40
1.8
 41
0.75
  1
BK
  7
STANDARD
 10
0.123395363489787
 20
3.42452938475771
  0
TEXT
  8
1
 40
1.8
 41
0.75
  1
BN
  7
STANDARD
 10
0.123395363489787
 20
7.42452938475771
  0
TEXT
  8
1
 40
1.8
 41
0.75
  1
PNP
  7
STANDARD
 72
1
 73
3
 10
-11.8766046365102
 20
-6.97452938475771
 11
-11.8766046365102
 21
-6.97452938475771
  0
LINE
  8
1
 10
-7.87660463651021
 20
6.4750499001996
 11
-6.87660463651021
 21
3.9750499001996
  0
LINE
  8
1
 10
-7.87660463651021
 20
3.9750499001996
 11
-5.87660463651021
 21
3.9750499001996
  0
LINE
  8
1
 10
-6.87660463651021
 20
3.9750499001996
 11
-6.87660463651021
 21
2.9750499001996
  0
LINE
  8
1
 10
-6.87660463651021
 20
5.9750499001996
 11
-6.87660463651021
 21
6.9750499001996
  0
LINE
  8
1
 10
-6.87660463651021
 20
6.9750499001996
 11
-4.87660463651021
 21
6.9750499001996
  0
LINE
  8
1
 10
-6.87660463651021
 20
2.9750499001996
 11
-4.87660463651021
 21
2.9750499001996
  0
POLYLINE
  8
1
 66
1
  0
VERTEX
  8
1
 10
-8.87660463651021
 20
0.975049900199604
  0
VERTEX
  8
1
 10
-8.87660463651021
 20
6.9750499001996
  0
VERTEX
  8
1
 10
-4.87660463651021
 20
6.9750499001996
  0
SEQEND
  8
1
  0
POLYLINE
  8
1
 66
1
  0
VERTEX
  8
1
 10
-8.87660463651021
 20
-3.0249500998004
  0
VERTEX
  8
1
 10
-6.87660463651021
 20
-3.0249500998004
  0
VERTEX
  8
1
 10
-6.87660463651021
 20
-1.0249500998004
  0
VERTEX
  8
1
 10
-4.87660463651021
 20
-1.0249500998004
  0
SEQEND
  8
1
  0
LINE
  8
1
 10
-8.87660463651021
 20
-0.0249500998003972
 11
-8.87660463651021
 21
0.975049900199603
  0
LINE
  8
1
 10
-8.87660463651021
 20
-2.0249500998004
 11
-8.87660463651021
 21
-3.0249500998004
  0
LINE
  8
1
 10
-9.87660463651021
 20
-2.0249500998004
 11
-7.87660463651021
 21
-2.0249500998004
  0
LINE
  8
1
 10
-9.87660463651021
 20
0.475049900199603
 11
-8.87660463651021
 21
-2.0249500998004
  0
ENDBLK
  8
0
  0
ENDSEC
  0
SECTION
  2
ENTITIES
  0
INSERT
  8
1
  2
B1827_00991165
 10
22.2937500476837
 20
9.97504966178102
  0
ENDSEC
  0
EOF
