  0
SECTION
  2
HEADER
  9
$LIMMIN
 10
0
 20
0
  9
$LIMMAX
 10
52.5
 20
74.25
  9
$EXTMIN
 10
0
 20
44.5875001748403
  9
$EXTMAX
 10
0
 20
19.9999995231628
  0
ENDSEC
  0
SECTION
  2
TABLES
  0
TABLE
  2
LTYPE
 70
9
  0
LTYPE
  2
CONTINUOUS
 70
64
  3
Solid line
 72
65
 73
0
 40
0
  0
LTYPE
  2
DASHED
 70
64
  3
__ __ __ __ __ __ __ __ __
 72
65
 73
2
 40
0.75
 49
0.5
 49
-0.25
  0
LTYPE
  2
DOT
 70
64
  3
...........................
 72
65
 73
2
 40
0.25
 49
0
 49
-0.25
  0
LTYPE
  2
DASHDOT
 70
64
  3
__ . __ . __ . __ . __ . __ . 
 72
65
 73
4
 40
1
 49
0.5
 49
-0.25
 49
0
 49
-0.25
  0
ENDTAB
  0
TABLE
  2
LAYER
 70
10
  0
LAYER
  2
1
 70
0
 62
7
  6
CONTINUOUS
  0
LAYER
  2
CONNECTIONS
 70
0
 62
-7
  6
CONTINUOUS
  0
ENDTAB
  0
ENDSEC
  0
SECTION
  2
BLOCKS
  0
BLOCK
  8
0
  2
TRICON
 70
0
 10
0
 20
0
  0
POLYLINE
  8
1
 70
1
 66
1
 40
0.5
 41
0.5
  0
VERTEX
  8
1
 10
-0.25
 20
0
 42
1
  0
VERTEX
  8
1
 10
0.25
 20
0
 42
1
  0
SEQEND
  8
1
  0
ENDBLK
  8
0
  0
BLOCK
  8
0
  2
TRICONSMALL
 70
0
 10
0
 20
0
  0
POLYLINE
  8
1
 70
1
 66
1
 40
0.25
 41
0.25
  0
VERTEX
  8
1
 10
-0.125
 20
0
 42
1
  0
VERTEX
  8
1
 10
0.125
 20
0
 42
1
  0
SEQEND
  8
1
  0
ENDBLK
  8
0
  0
BLOCK
  8
0
  2
TRICONCIRCLE
 70
0
 10
0
 20
0
  0
CIRCLE
  8
1
 10
0
 20
0
 40
0.5
  0
ENDBLK
  8
0
  0
BLOCK
  8
0
  2
LCBP0
 70
0
 10
0
 20
0
  0
LINE
  8
1
 10
0
 20
-0.46875
 11
0
 21
0.46875
  0
ENDBLK
  8
0
  0
BLOCK
  8
0
  2
LCBP1
 70
0
 10
0
 20
0
  0
LINE
  8
1
 10
0
 20
-0.625
 11
0
 21
0.625
  0
ENDBLK
  8
0
  0
BLOCK
  8
0
  2
LCBP2
 70
0
 10
0
 20
0
  0
LINE
  8
1
 10
0
 20
-0.9375
 11
0
 21
0.9375
  0
ENDBLK
  8
0
  0
BLOCK
  8
0
  2
LCA1
 70
0
 10
0
 20
0
  0
SOLID
  8
1
 62
7 
 10
0
 20
0
 11
-1.4
 21
-0.275
 12
-1.4
 22
0.275
 13
-1.4
 23
0.275
  0
ENDBLK
  8
0
  0
BLOCK
  8
0
  2
LCA2
 70
0
 10
0
 20
0
  0
SOLID
  8
1
 62
7 
 10
0
 20
0
 11
-1.65
 21
-0.525
 12
-1.65
 22
0.525
 13
-1.65
 23
0.525
  0
ENDBLK
  8
0
  0
BLOCK
  8
0
  2
LCA3
 70
0
 10
0
 20
0
  0
SOLID
  8
1
 62
7 
 10
0
 20
0
 11
-2.15
 21
-1.15
 12
-2.15
 22
1.15
 13
-2.15
 23
1.15
  0
ENDBLK
  8
0
  0
BLOCK
  8
0
  2
LCA1R
 70
0
 10
0
 20
0
  0
SOLID
  8
1
 62
7 
 10
0
 20
0
 11
1.4
 21
-0.275
 12
1.4
 22
0.275
 13
1.4
 23
0.275
  0
ENDBLK
  8
0
  0
BLOCK
  8
0
  2
LCA2R
 70
0
 10
0
 20
0
  0
SOLID
  8
1
 62
7 
 10
0
 20
0
 11
1.65
 21
-0.525
 12
1.65
 22
0.525
 13
1.65
 23
0.525
  0
ENDBLK
  8
0
  0
BLOCK
  8
0
  2
LCA3R
 70
0
 10
0
 20
0
  0
SOLID
  8
1
 62
7 
 10
0
 20
0
 11
2.15
 21
-1.15
 12
2.15
 22
1.15
 13
2.15
 23
1.15
  0
ENDBLK
  8
0
  0
BLOCK
  8
0
  2
B1819_00991161
 70
0
 10
0
 20
0
  0
LINE
  8
1
 10
-4.87660463651021
 20
-5
 11
-2.87660463651021
 21
-5
  0
LINE
  8
1
 10
-4.87660463651021
 20
-1
 11
-2.87660463651021
 21
-1
  0
LINE
  8
1
 10
-4.87660463651021
 20
3
 11
-2.87660463651021
 21
3
  0
LINE
  8
1
 10
-4.87660463651021
 20
7
 11
-2.87660463651021
 21
7
  0
LINE
  8
1
 10
-18.8766046365102
 20
1
 11
-11.8766046365102
 21
8
  0
POLYLINE
  8
1
 66
1
  0
VERTEX
  8
1
 10
-18.8766046365102
 20
8
  0
VERTEX
  8
1
 10
-4.87660463651021
 20
8
  0
VERTEX
  8
1
 10
-4.87660463651021
 20
-6
  0
VERTEX
  8
1
 10
-18.8766046365102
 20
-6
  0
VERTEX
  8
1
 10
-18.8766046365102
 20
8
  0
SEQEND
  8
1
  0
LINE
  8
1
 10
-2.87660463651021
 20
-5
 11
-1.87660463651021
 21
-5
  0
SOLID
  8
1
 10
-1.87660463651021
 20
-4.75
 11
-0.376604636510213
 21
-4.75
 12
-1.87660463651021
 22
-5.25
 13
-0.376604636510213
 23
-5.25
  0
SOLID
  8
1
 10
-0.376604636510213
 20
-5.25
 11
-1.87660463651021
 21
-5.25
 12
-1.87660463651021
 22
-5.25
 13
-1.87660463651021
 23
-4.75
  0
LINE
  8
1
 10
-2.87660463651021
 20
-1
 11
-1.87660463651021
 21
-1
  0
SOLID
  8
1
 10
-1.87660463651021
 20
-0.75
 11
-0.376604636510213
 21
-0.75
 12
-1.87660463651021
 22
-1.25
 13
-0.376604636510213
 23
-1.25
  0
SOLID
  8
1
 10
-0.376604636510213
 20
-1.25
 11
-1.87660463651021
 21
-1.25
 12
-1.87660463651021
 22
-1.25
 13
-1.87660463651021
 23
-0.75
  0
SOLID
  8
1
 10
-1.87660463651021
 20
3.25
 11
-0.376604636510213
 21
3.25
 12
-1.87660463651021
 22
2.75
 13
-0.376604636510213
 23
2.75
  0
SOLID
  8
1
 10
-0.376604636510213
 20
2.75
 11
-1.87660463651021
 21
2.75
 12
-1.87660463651021
 22
2.75
 13
-1.87660463651021
 23
3.25
  0
LINE
  8
1
 10
-2.87660463651021
 20
3
 11
-1.87660463651021
 21
3
  0
LINE
  8
1
 10
-2.87660463651021
 20
7
 11
-1.87660463651021
 21
7
  0
SOLID
  8
1
 10
-1.87660463651021
 20
7.25
 11
-0.376604636510213
 21
7.25
 12
-1.87660463651021
 22
6.75
 13
-0.376604636510213
 23
6.75
  0
SOLID
  8
1
 10
-0.376604636510213
 20
6.75
 11
-1.87660463651021
 21
6.75
 12
-1.87660463651021
 22
6.75
 13
-1.87660463651021
 23
7.25
  0
TEXT
  8
1
 40
1.8
 41
0.75
  1
P
  7
STANDARD
 72
2
 10
-19.4594589074453
 20
5.67474037806193
 11
-19.4594589074453
 21
5.67474037806193
  0
LINE
  8
1
 10
-18.8766046365102
 20
5.5
 11
-17.8766046365102
 21
5
  0
LINE
  8
1
 10
-17.8766046365102
 20
5
 11
-18.8766046365102
 21
4.5
  0
LINE
  8
1
 10
-18.8766046365102
 20
5.5
 11
-18.8766046365102
 21
4.5
  0
LINE
  8
1
 10
-21.8766046365102
 20
5
 11
-18.8766046365102
 21
5
  0
LINE
  8
1
 10
0.123395363489787
 20
7
 11
1.12339536348979
 21
7
  0
ARC
  8
1
 10
-0.876604636510213
 20
7
 40
1
 50
270
 51
90
  0
LINE
  8
1
 10
0.123395363489787
 20
-5
 11
1.12339536348979
 21
-5
  0
ARC
  8
1
 10
-0.876604636510213
 20
-5
 40
1
 50
270
 51
90
  0
LINE
  8
1
 10
0.123395363489787
 20
-1
 11
1.12339536348979
 21
-1
  0
ARC
  8
1
 10
-0.876604636510213
 20
-1
 40
1
 50
270
 51
90
  0
LINE
  8
1
 10
0.123395363489787
 20
3
 11
1.12339536348979
 21
3
  0
ARC
  8
1
 10
-0.876604636510213
 20
3
 40
1
 50
270
 51
90
  0
LINE
  8
1
 10
10.323426803153
 20
7
 11
11.9233953634898
 21
7
  0
LINE
  8
1
 10
12.3233953634898
 20
7
 11
14.1233953634898
 21
7
  0
LINE
  8
1
 10
1.12339536348979
 20
7
 11
9.92339536348978
 21
7
  0
CIRCLE
  8
1
 10
12.1233953634898
 20
7
 40
0.2
  0
CIRCLE
  8
1
 10
10.1233953634898
 20
7
 40
0.2
  0
LINE
  8
1
 10
1.12339536348979
 20
-5
 11
14.1233953634898
 21
-5
  0
LINE
  8
1
 10
10.1233953634898
 20
-1
 11
12.1233953634898
 21
-1
  0
LINE
  8
1
 10
1.12339536348979
 20
-1
 11
4.12339536348979
 21
-1
  0
TEXT
  8
1
 40
1.125
 41
0.75
  1
L
  7
STANDARD
 72
1
 10
9.33686137199402
 20
-0.094075361887614
 11
9.33686137199402
 21
-0.094075361887614
  0
TEXT
  8
1
 40
1.8
 41
0.75
  1
R
  7
STANDARD
 72
1
 10
7.62339536348979
 20
-0.1
 11
7.62339536348979
 21
-0.1
  0
LINE
  8
1
 10
6.12339536348979
 20
-1
 11
4.12339536348979
 21
-1
  0
POLYLINE
  8
1
 66
1
  0
VERTEX
  8
1
 10
6.12339536348979
 20
-0.5
  0
VERTEX
  8
1
 10
10.1233953634898
 20
-0.5
  0
VERTEX
  8
1
 10
10.1233953634898
 20
-1.5
  0
VERTEX
  8
1
 10
6.12339536348979
 20
-1.5
  0
VERTEX
  8
1
 10
6.12339536348979
 20
-0.5
  0
SEQEND
  8
1
  0
LINE
  8
1
 10
12.1233953634898
 20
6.8
 11
12.1233953634898
 21
-1
  0
LINE
  8
1
 10
10.1233953634898
 20
6.8
 11
10.1233953634898
 21
3
  0
LINE
  8
1
 10
1.12339536348979
 20
3
 11
3.12339536348979
 21
3
  0
LINE
  8
1
 10
9.12339536348979
 20
3
 11
10.1233953634898
 21
3
  0
TEXT
  8
1
 40
1.125
 41
0.75
  1
L
  7
STANDARD
 72
1
 10
8.33686137199402
 20
3.90592463811239
 11
8.33686137199402
 21
3.90592463811239
  0
TEXT
  8
1
 40
1.8
 41
0.75
  1
R
  7
STANDARD
 72
1
 10
6.62339536348979
 20
3.9
 11
6.62339536348979
 21
3.9
  0
LINE
  8
1
 10
5.12339536348979
 20
3
 11
3.12339536348979
 21
3
  0
POLYLINE
  8
1
 66
1
  0
VERTEX
  8
1
 10
5.12339536348979
 20
3.5
  0
VERTEX
  8
1
 10
9.12339536348979
 20
3.5
  0
VERTEX
  8
1
 10
9.12339536348979
 20
2.5
  0
VERTEX
  8
1
 10
5.12339536348979
 20
2.5
  0
VERTEX
  8
1
 10
5.12339536348979
 20
3.5
  0
SEQEND
  8
1
  0
LINE
  8
1
  6
DOT
 10
-10.6266046365102
 20
-3
 11
-7.27659754929042
 21
-3
  0
LINE
  8
1
 10
-12.1266046365102
 20
-3.1
 11
-11.6266046365102
 21
-3.5
  0
LINE
  8
1
 10
-12.1266046365102
 20
-2.9
 11
-11.6266046365102
 21
-2.5
  0
SOLID
  8
1
 10
-10.1266046365102
 20
-1
 11
-10.7360561087242
 21
-1.50355625605903
 12
-10.1266046365102
 22
-1
 13
-10.312032060646
 23
-1.76851588817563
  0
LINE
  8
1
 10
-12.6266046365102
 20
-5
 11
-10.1266046365102
 21
-1
  0
LINE
  8
1
 10
-12.1266046365102
 20
-4
 11
-12.1266046365102
 21
-5
  0
LINE
  8
1
 10
-12.1266046365102
 20
-2
 11
-12.1266046365102
 21
-1
  0
POLYLINE
  8
1
 66
1
  0
VERTEX
  8
1
 10
-13.6266046365102
 20
-2
  0
VERTEX
  8
1
 10
-10.6266046365102
 20
-2
  0
VERTEX
  8
1
 10
-10.6266046365102
 20
-4
  0
VERTEX
  8
1
 10
-13.6266046365102
 20
-4
  0
VERTEX
  8
1
 10
-13.6266046365102
 20
-2
  0
SEQEND
  8
1
  0
LINE
  8
1
 10
-12.1266046365102
 20
-2.6
 11
-12.1266046365102
 21
-3.4
  0
LINE
  8
1
 10
-13.1266046365102
 20
-3
 11
-12.1266046365102
 21
-3
  0
LINE
  8
1
  6
DOT
 10
-12.8766046365102
 20
1
 11
-9.27659501347729
 21
1
  0
LINE
  8
1
 10
-14.3766046365102
 20
0.9
 11
-13.8766046365102
 21
0.5
  0
LINE
  8
1
 10
-14.3766046365102
 20
1.1
 11
-13.8766046365102
 21
1.5
  0
SOLID
  8
1
 10
-12.3766046365102
 20
3
 11
-12.9860561087242
 21
2.49644374394097
 12
-12.3766046365102
 22
3
 13
-12.562032060646
 23
2.23148411182437
  0
LINE
  8
1
 10
-14.8766046365102
 20
-1
 11
-12.3766046365102
 21
3
  0
LINE
  8
1
 10
-14.3766046365102
 20
0
 11
-14.3766046365102
 21
-1
  0
LINE
  8
1
 10
-14.3766046365102
 20
2
 11
-14.3766046365102
 21
3
  0
POLYLINE
  8
1
 66
1
  0
VERTEX
  8
1
 10
-15.8766046365102
 20
2
  0
VERTEX
  8
1
 10
-12.8766046365102
 20
2
  0
VERTEX
  8
1
 10
-12.8766046365102
 20
0
  0
VERTEX
  8
1
 10
-15.8766046365102
 20
0
  0
VERTEX
  8
1
 10
-15.8766046365102
 20
2
  0
SEQEND
  8
1
  0
LINE
  8
1
 10
-14.3766046365102
 20
1.4
 11
-14.3766046365102
 21
0.6
  0
LINE
  8
1
 10
-15.3766046365102
 20
1
 11
-14.3766046365102
 21
1
  0
TEXT
  8
1
 40
1.8
 41
0.75
  1
1
  7
STANDARD
 10
-4.47660463651021
 20
7.44947948455811
  0
TEXT
  8
1
 40
1.8
 41
0.75
  1
4
  7
STANDARD
 10
-4.47660463651021
 20
3.44947948455811
  0
TEXT
  8
1
 40
1.8
 41
0.75
  1
2
  7
STANDARD
 10
-4.47660463651021
 20
-0.550520515441894
  0
TEXT
  8
1
 40
1.8
 41
0.75
  1
3
  7
STANDARD
 10
-4.47660463651021
 20
-4.55052051544189
  0
TEXT
  8
1
 40
1.8
 41
0.75
  1
WH
  7
STANDARD
 10
-0.276604636510214
 20
-0.550520515441894
  0
TEXT
  8
1
 40
1.8
 41
0.75
  1
+24V
  7
STANDARD
 10
14.6064865589142
 20
6.17473974227905
  0
TEXT
  8
1
 40
1.8
 41
0.75
  1
0V
  7
STANDARD
 10
14.5264626344045
 20
-6.1
  0
TEXT
  8
1
 40
1.8
 41
0.75
  1
BU
  7
STANDARD
 10
0.123395363489787
 20
-4.55052051544189
  0
TEXT
  8
1
 40
1.8
 41
0.75
  1
BK
  7
STANDARD
 10
0.123395363489787
 20
3.44947948455811
  0
TEXT
  8
1
 40
1.8
 41
0.75
  1
BN
  7
STANDARD
 10
0.123395363489787
 20
7.44947948455811
  0
TEXT
  8
1
 40
1.8
 41
0.75
  1
NPN
  7
STANDARD
 72
1
 73
3
 10
-11.8766046365102
 20
-6.99947948455811
 11
-11.8766046365102
 21
-6.99947948455811
  0
LINE
  8
1
 10
-6.87660463651021
 20
-5
 11
-4.87660463651021
 21
-5
  0
LINE
  8
1
 10
-6.87660463651021
 20
-1
 11
-4.87660463651021
 21
-1
  0
LINE
  8
1
 10
-7.87660463651021
 20
-1.5
 11
-6.87660463651021
 21
-4
  0
LINE
  8
1
 10
-7.87660463651021
 20
-4
 11
-5.87660463651021
 21
-4
  0
LINE
  8
1
 10
-6.87660463651021
 20
-4
 11
-6.87660463651021
 21
-5
  0
LINE
  8
1
 10
-6.87660463651021
 20
-2
 11
-6.87660463651021
 21
-1
  0
POLYLINE
  8
1
 66
1
  0
VERTEX
  8
1
 10
-8.87660463651021
 20
-1
  0
VERTEX
  8
1
 10
-8.87660463651021
 20
-5
  0
VERTEX
  8
1
 10
-4.87660463651021
 20
-5
  0
SEQEND
  8
1
  0
LINE
  8
1
 10
-8.87660463651021
 20
3
 11
-4.87660463651021
 21
3
  0
LINE
  8
1
 10
-9.87660463651021
 20
2.5
 11
-8.87660463651021
 21
0
  0
LINE
  8
1
 10
-9.87660463651021
 20
0
 11
-7.87660463651021
 21
0
  0
LINE
  8
1
 10
-8.87660463651021
 20
0
 11
-8.87660463651021
 21
-1
  0
LINE
  8
1
 10
-8.87660463651021
 20
2
 11
-8.87660463651021
 21
3
  0
ENDBLK
  8
0
  0
ENDSEC
  0
SECTION
  2
ENTITIES
  0
INSERT
  8
1
  2
B1819_00991161
 10
22.2937500476837
 20
9.99999976158142
  0
ENDSEC
  0
EOF
