  0
SECTION
  2
HEADER
  9
$LIMMIN
 10
0
 20
0
  9
$LIMMAX
 10
52.5
 20
74.25
  9
$EXTMIN
 10
0
 20
56.0333333333333
  9
$EXTMAX
 10
0
 20
16
  0
ENDSEC
  0
SECTION
  2
TABLES
  0
TABLE
  2
LTYPE
 70
9
  0
LTYPE
  2
CONTINUOUS
 70
64
  3
Solid line
 72
65
 73
0
 40
0
  0
LTYPE
  2
DASHED
 70
64
  3
__ __ __ __ __ __ __ __ __
 72
65
 73
2
 40
0.75
 49
0.5
 49
-0.25
  0
LTYPE
  2
DOT
 70
64
  3
...........................
 72
65
 73
2
 40
0.25
 49
0
 49
-0.25
  0
LTYPE
  2
DASHDOT
 70
64
  3
__ . __ . __ . __ . __ . __ . 
 72
65
 73
4
 40
1
 49
0.5
 49
-0.25
 49
0
 49
-0.25
  0
ENDTAB
  0
TABLE
  2
LAYER
 70
10
  0
LAYER
  2
1
 70
0
 62
7
  6
CONTINUOUS
  0
LAYER
  2
CONNECTIONS
 70
0
 62
-7
  6
CONTINUOUS
  0
ENDTAB
  0
ENDSEC
  0
SECTION
  2
BLOCKS
  0
BLOCK
  8
0
  2
TRICON
 70
0
 10
0
 20
0
  0
POLYLINE
  8
1
 70
1
 66
1
 40
0.5
 41
0.5
  0
VERTEX
  8
1
 10
-0.25
 20
0
 42
1
  0
VERTEX
  8
1
 10
0.25
 20
0
 42
1
  0
SEQEND
  8
1
  0
ENDBLK
  8
0
  0
BLOCK
  8
0
  2
TRICONSMALL
 70
0
 10
0
 20
0
  0
POLYLINE
  8
1
 70
1
 66
1
 40
0.25
 41
0.25
  0
VERTEX
  8
1
 10
-0.125
 20
0
 42
1
  0
VERTEX
  8
1
 10
0.125
 20
0
 42
1
  0
SEQEND
  8
1
  0
ENDBLK
  8
0
  0
BLOCK
  8
0
  2
TRICONCIRCLE
 70
0
 10
0
 20
0
  0
CIRCLE
  8
1
 10
0
 20
0
 40
0.5
  0
ENDBLK
  8
0
  0
BLOCK
  8
0
  2
LCBP0
 70
0
 10
0
 20
0
  0
LINE
  8
1
 10
0
 20
-0.46875
 11
0
 21
0.46875
  0
ENDBLK
  8
0
  0
BLOCK
  8
0
  2
LCBP1
 70
0
 10
0
 20
0
  0
LINE
  8
1
 10
0
 20
-0.625
 11
0
 21
0.625
  0
ENDBLK
  8
0
  0
BLOCK
  8
0
  2
LCBP2
 70
0
 10
0
 20
0
  0
LINE
  8
1
 10
0
 20
-0.9375
 11
0
 21
0.9375
  0
ENDBLK
  8
0
  0
BLOCK
  8
0
  2
LCA1
 70
0
 10
0
 20
0
  0
SOLID
  8
1
 62
7 
 10
0
 20
0
 11
-1.4
 21
-0.275
 12
-1.4
 22
0.275
 13
-1.4
 23
0.275
  0
ENDBLK
  8
0
  0
BLOCK
  8
0
  2
LCA2
 70
0
 10
0
 20
0
  0
SOLID
  8
1
 62
7 
 10
0
 20
0
 11
-1.65
 21
-0.525
 12
-1.65
 22
0.525
 13
-1.65
 23
0.525
  0
ENDBLK
  8
0
  0
BLOCK
  8
0
  2
LCA3
 70
0
 10
0
 20
0
  0
SOLID
  8
1
 62
7 
 10
0
 20
0
 11
-2.15
 21
-1.15
 12
-2.15
 22
1.15
 13
-2.15
 23
1.15
  0
ENDBLK
  8
0
  0
BLOCK
  8
0
  2
LCA1R
 70
0
 10
0
 20
0
  0
SOLID
  8
1
 62
7 
 10
0
 20
0
 11
1.4
 21
-0.275
 12
1.4
 22
0.275
 13
1.4
 23
0.275
  0
ENDBLK
  8
0
  0
BLOCK
  8
0
  2
LCA2R
 70
0
 10
0
 20
0
  0
SOLID
  8
1
 62
7 
 10
0
 20
0
 11
1.65
 21
-0.525
 12
1.65
 22
0.525
 13
1.65
 23
0.525
  0
ENDBLK
  8
0
  0
BLOCK
  8
0
  2
LCA3R
 70
0
 10
0
 20
0
  0
SOLID
  8
1
 62
7 
 10
0
 20
0
 11
2.15
 21
-1.15
 12
2.15
 22
1.15
 13
2.15
 23
1.15
  0
ENDBLK
  8
0
  0
BLOCK
  8
0
  2
B202112_00991018
 70
0
 10
0
 20
0
  0
TEXT
  8
1
 40
2.475
 41
0.75
  1
12
  7
STANDARD
 73
3
 10
23.2864692218352
 20
-5.07346281623168
 11
23.2864692218352
 21
-5.07346281623168
  0
TEXT
  8
1
 40
2.475
 41
0.75
  1
14
  7
STANDARD
 73
3
 10
-28.8381971650205
 20
-5.06007672595447
 11
-28.8381971650205
 21
-5.06007672595447
  0
TEXT
  8
1
 40
2.4
 41
0.75
  1
1
  7
STANDARD
 72
2
 10
0.565943845113113
 20
-8.08686821700944
 11
0.565943845113113
 21
-8.08686821700944
  0
TEXT
  8
1
 40
2.4
 41
0.75
  1
3
  7
STANDARD
 10
4.58333333333333
 20
-8.1
  0
TEXT
  8
1
 40
2.4
 41
0.75
  1
5
  7
STANDARD
 72
2
 10
-4.25144564310709
 20
-8
 11
-4.25144564310709
 21
-8
  0
TEXT
  8
1
 40
2.4
 41
0.75
  1
2
  7
STANDARD
 72
2
 10
3.84855499267579
 20
5.2
 11
3.84855499267579
 21
5.2
  0
TEXT
  8
1
 40
2.4
 41
0.75
  1
4
  7
STANDARD
 72
2
 10
-4.35144500732422
 20
5.2
 11
-4.35144500732422
 21
5.2
  0
LINE
  8
1
 10
-4.01666666666667
 20
-4
 11
-4.01666666666667
 21
-8
  0
LINE
  8
1
 10
-0.0166666666666657
 20
-4
 11
-0.0166666666666657
 21
-8
  0
LINE
  8
1
 10
-4.01666666666667
 20
8
 11
-4.01666666666667
 21
4
  0
LINE
  8
1
 10
3.98333333333333
 20
8
 11
3.98333333333333
 21
4
  0
LINE
  8
1
 10
3.98333333333333
 20
-4
 11
3.98333333333333
 21
-8
  0
LINE
  8
1
 10
22.0166666666597
 20
-2.03333333333333
 11
18.0166666666667
 21
-2.03333333333333
  0
LINE
  8
1
 10
25.4807552596288
 20
-2.03332581498075
 11
28.0166666666667
 21
-2.03332581498075
  0
LINE
  8
1
 10
25.4807552596288
 20
-0.0333258149807527
 11
25.4807552596288
 21
-4.03332581498075
  0
LINE
  8
1
 10
25.4807552596288
 20
-0.0333258149807527
 11
22.016653644491
 21
-2.03332581498075
  0
LINE
  8
1
 10
25.4807552596288
 20
-4.03332581498075
 11
22.016653644491
 21
-2.03332581498075
  0
LINE
  8
1
 10
22.0166666666597
 20
-2.03333333333334
 11
18.0166666666667
 21
-2.03333333333334
  0
LINE
  8
1
 10
25.4807552596288
 20
-2.03332581498076
 11
28.0166666666667
 21
-2.03332581498076
  0
LINE
  8
1
 10
25.4807552596288
 20
-0.0333258149807586
 11
25.4807552596288
 21
-4.03332581498076
  0
LINE
  8
1
 10
25.4807552596288
 20
-0.0333258149807586
 11
22.016653644491
 21
-2.03332581498076
  0
LINE
  8
1
 10
25.4807552596288
 20
-4.03332581498076
 11
22.016653644491
 21
-2.03332581498076
  0
LINE
  8
1
 10
-22.0166666666597
 20
-2
 11
-18.0166666666667
 21
-2
  0
LINE
  8
1
 10
-25.4807552596288
 20
-1.99999248164742
 11
-28.0166666666667
 21
-1.99999248164742
  0
LINE
  8
1
 10
-25.4807552596288
 20
7.51835257872813E-06
 11
-25.4807552596288
 21
-3.99999248164742
  0
LINE
  8
1
 10
-25.4807552596288
 20
7.51835257872813E-06
 11
-22.016653644491
 21
-1.99999248164742
  0
LINE
  8
1
 10
-25.4807552596288
 20
-3.99999248164742
 11
-22.016653644491
 21
-1.99999248164742
  0
POLYLINE
  8
1
 66
1
  0
VERTEX
  8
1
 10
22.9833333333333
 20
2
  0
VERTEX
  8
1
 10
22.5666666666665
 20
0
  0
VERTEX
  8
1
 10
21.7333333333333
 20
4
  0
VERTEX
  8
1
 10
20.9
 20
0
  0
VERTEX
  8
1
 10
20.0666666666666
 20
4
  0
VERTEX
  8
1
 10
19.2333333333333
 20
0
  0
VERTEX
  8
1
 10
18.4
 20
4
  0
VERTEX
  8
1
 10
17.9833333333333
 20
2
  0
SEQEND
  8
1
  0
POLYLINE
  8
1
 66
1
  0
VERTEX
  8
1
 10
-23.0166666666667
 20
2
  0
VERTEX
  8
1
 10
-22.6
 20
0
  0
VERTEX
  8
1
 10
-21.7666666666667
 20
4
  0
VERTEX
  8
1
 10
-20.9333333333333
 20
0
  0
VERTEX
  8
1
 10
-20.1
 20
4
  0
VERTEX
  8
1
 10
-19.2666666666667
 20
0
  0
VERTEX
  8
1
 10
-18.4333333333333
 20
4
  0
VERTEX
  8
1
 10
-18.0166666666667
 20
2
  0
SEQEND
  8
1
  0
LINE
  8
1
 10
-4.01666666666667
 20
4
 11
-4.01666666666667
 21
2
  0
INSERT
  8
1
  2
LCBP1
 10
-4.01666666666667
 20
2
 50
-90
  0
LINE
  8
1
 10
3.98333333333333
 20
4
 11
3.98333333333333
 21
2
  0
INSERT
  8
1
  2
LCBP1
 10
3.98333333333333
 20
2
 50
-90
  0
LINE
  8
1
 10
3.98333333333333
 20
-4
 11
3.98333333333333
 21
-2
  0
INSERT
  8
1
  2
LCBP1
 10
3.98333333333333
 20
-2
 50
90
  0
LINE
  8
1
 10
-0.0166666666666657
 20
-4
 11
-0.0166666666666657
 21
-2
  0
INSERT
  8
1
  2
LCBP1
 10
-0.0166666666666657
 20
-2
 50
90
  0
LINE
  8
1
 10
-4.01666666666667
 20
-4
 11
-4.01666666666667
 21
-2
  0
INSERT
  8
1
  2
LCBP1
 10
-4.01666666666667
 20
-2
 50
90
  0
POLYLINE
  8
1
 66
1
  0
VERTEX
  8
1
 10
-6.01666666666667
 20
4
  0
VERTEX
  8
1
 10
5.98333333333333
 20
4
  0
VERTEX
  8
1
 10
5.98333333333333
 20
-4
  0
VERTEX
  8
1
 10
-6.01666666666667
 20
-4
  0
VERTEX
  8
1
 10
-6.01666666666667
 20
4
  0
SEQEND
  8
1
  0
LINE
  8
1
 10
-16.0166666666667
 20
-4
 11
-16.0166666666667
 21
-2
  0
INSERT
  8
1
  2
LCBP1
 10
-16.0166666666667
 20
-2
 50
90
  0
POLYLINE
  8
1
 66
1
  0
VERTEX
  8
1
 10
-18.0166666666667
 20
4
  0
VERTEX
  8
1
 10
-6.01666666666667
 20
4
  0
VERTEX
  8
1
 10
-6.01666666666667
 20
-4
  0
VERTEX
  8
1
 10
-18.0166666666667
 20
-4
  0
VERTEX
  8
1
 10
-18.0166666666667
 20
4
  0
SEQEND
  8
1
  0
LINE
  8
1
 10
-16.0166666666667
 20
4
 11
-12.0166666666667
 21
-4
  0
INSERT
  8
1
  2
LCA1
 10
-12.0166666666667
 20
-4
 50
-63.434948822922
  0
INSERT
  8
1
  2
LCA1R
 10
-16.0166666666667
 20
4
 50
-63.434948822922
  0
LINE
  8
1
 10
-8.01666666666667
 20
-4
 11
-8.01666666666667
 21
4
  0
INSERT
  8
1
  2
LCA1
 10
-8.01666666666667
 20
4
 50
90
  0
INSERT
  8
1
  2
LCA1R
 10
-8.01666666666667
 20
-4
 50
90
  0
LINE
  8
1
 10
15.9833333333333
 20
-4
 11
15.9833333333333
 21
-2
  0
INSERT
  8
1
  2
LCBP0
 10
15.9833333333333
 20
-2
 50
90
  0
POLYLINE
  8
1
 66
1
  0
VERTEX
  8
1
 10
5.98333333333333
 20
4
  0
VERTEX
  8
1
 10
17.9833333333333
 20
4
  0
VERTEX
  8
1
 10
17.9833333333333
 20
-4
  0
VERTEX
  8
1
 10
5.98333333333333
 20
-4
  0
VERTEX
  8
1
 10
5.98333333333333
 20
4
  0
SEQEND
  8
1
  0
LINE
  8
1
 10
7.98333333333333
 20
-4
 11
7.98333333333333
 21
4
  0
INSERT
  8
1
  2
LCA1
 10
7.98333333333333
 20
4
 50
90
  0
INSERT
  8
1
  2
LCA1R
 10
7.98333333333333
 20
-4
 50
90
  0
LINE
  8
1
 10
11.9833333333333
 20
-4
 11
15.9833333333333
 21
4
  0
INSERT
  8
1
  2
LCA1
 10
15.9833333333333
 20
4
 50
63.434948822922
  0
INSERT
  8
1
  2
LCA1R
 10
11.9833333333333
 20
-4
 50
63.434948822922
  0
CIRCLE
  8
CONNECTIONS
 10
27.9833333333333
 20
-2
 40
0
  0
CIRCLE
  8
CONNECTIONS
 10
-28.0166666666667
 20
-2
 40
0
  0
CIRCLE
  8
CONNECTIONS
 10
3.98333333333333
 20
8
 40
0
  0
CIRCLE
  8
CONNECTIONS
 10
-4.01666666666667
 20
8
 40
0
  0
CIRCLE
  8
CONNECTIONS
 10
-0.0166666666666657
 20
-8
 40
0
  0
CIRCLE
  8
CONNECTIONS
 10
-4.01666666666667
 20
-8
 40
0
  0
CIRCLE
  8
CONNECTIONS
 10
3.98333333333333
 20
-8
 40
0
  0
ENDBLK
  8
0
  0
ENDSEC
  0
SECTION
  2
ENTITIES
  0
INSERT
  8
1
  2
B202112_00991018
 10
28.0166666666667
 20
8
  0
ENDSEC
  0
EOF
