  0
SECTION
  2
HEADER
  9
$LIMMIN
 10
0
 20
0
  9
$LIMMAX
 10
52.5
 20
74.25
  9
$EXTMIN
 10
0
 20
34.7323431650798
  9
$EXTMAX
 10
0
 20
16.6870252927144
  0
ENDSEC
  0
SECTION
  2
TABLES
  0
TABLE
  2
LTYPE
 70
9
  0
LTYPE
  2
CONTINUOUS
 70
64
  3
Solid line
 72
65
 73
0
 40
0
  0
LTYPE
  2
DASHED
 70
64
  3
__ __ __ __ __ __ __ __ __
 72
65
 73
2
 40
0.75
 49
0.5
 49
-0.25
  0
LTYPE
  2
DOT
 70
64
  3
...........................
 72
65
 73
2
 40
0.25
 49
0
 49
-0.25
  0
LTYPE
  2
DASHDOT
 70
64
  3
__ . __ . __ . __ . __ . __ . 
 72
65
 73
4
 40
1
 49
0.5
 49
-0.25
 49
0
 49
-0.25
  0
ENDTAB
  0
TABLE
  2
LAYER
 70
10
  0
LAYER
  2
1
 70
0
 62
7
  6
CONTINUOUS
  0
LAYER
  2
CONNECTIONS
 70
0
 62
-7
  6
CONTINUOUS
  0
ENDTAB
  0
ENDSEC
  0
SECTION
  2
BLOCKS
  0
BLOCK
  8
0
  2
TRICON
 70
0
 10
0
 20
0
  0
POLYLINE
  8
1
 70
1
 66
1
 40
0.5
 41
0.5
  0
VERTEX
  8
1
 10
-0.25
 20
0
 42
1
  0
VERTEX
  8
1
 10
0.25
 20
0
 42
1
  0
SEQEND
  8
1
  0
ENDBLK
  8
0
  0
BLOCK
  8
0
  2
TRICONSMALL
 70
0
 10
0
 20
0
  0
POLYLINE
  8
1
 70
1
 66
1
 40
0.25
 41
0.25
  0
VERTEX
  8
1
 10
-0.125
 20
0
 42
1
  0
VERTEX
  8
1
 10
0.125
 20
0
 42
1
  0
SEQEND
  8
1
  0
ENDBLK
  8
0
  0
BLOCK
  8
0
  2
TRICONCIRCLE
 70
0
 10
0
 20
0
  0
CIRCLE
  8
1
 10
0
 20
0
 40
0.5
  0
ENDBLK
  8
0
  0
BLOCK
  8
0
  2
LCBP0
 70
0
 10
0
 20
0
  0
LINE
  8
1
 10
0
 20
-0.46875
 11
0
 21
0.46875
  0
ENDBLK
  8
0
  0
BLOCK
  8
0
  2
LCBP1
 70
0
 10
0
 20
0
  0
LINE
  8
1
 10
0
 20
-0.625
 11
0
 21
0.625
  0
ENDBLK
  8
0
  0
BLOCK
  8
0
  2
LCBP2
 70
0
 10
0
 20
0
  0
LINE
  8
1
 10
0
 20
-0.9375
 11
0
 21
0.9375
  0
ENDBLK
  8
0
  0
BLOCK
  8
0
  2
LCA1
 70
0
 10
0
 20
0
  0
SOLID
  8
1
 62
7 
 10
0
 20
0
 11
-1.4
 21
-0.275
 12
-1.4
 22
0.275
 13
-1.4
 23
0.275
  0
ENDBLK
  8
0
  0
BLOCK
  8
0
  2
LCA2
 70
0
 10
0
 20
0
  0
SOLID
  8
1
 62
7 
 10
0
 20
0
 11
-1.65
 21
-0.525
 12
-1.65
 22
0.525
 13
-1.65
 23
0.525
  0
ENDBLK
  8
0
  0
BLOCK
  8
0
  2
LCA3
 70
0
 10
0
 20
0
  0
SOLID
  8
1
 62
7 
 10
0
 20
0
 11
-2.15
 21
-1.15
 12
-2.15
 22
1.15
 13
-2.15
 23
1.15
  0
ENDBLK
  8
0
  0
BLOCK
  8
0
  2
LCA1R
 70
0
 10
0
 20
0
  0
SOLID
  8
1
 62
7 
 10
0
 20
0
 11
1.4
 21
-0.275
 12
1.4
 22
0.275
 13
1.4
 23
0.275
  0
ENDBLK
  8
0
  0
BLOCK
  8
0
  2
LCA2R
 70
0
 10
0
 20
0
  0
SOLID
  8
1
 62
7 
 10
0
 20
0
 11
1.65
 21
-0.525
 12
1.65
 22
0.525
 13
1.65
 23
0.525
  0
ENDBLK
  8
0
  0
BLOCK
  8
0
  2
LCA3R
 70
0
 10
0
 20
0
  0
SOLID
  8
1
 62
7 
 10
0
 20
0
 11
2.15
 21
-1.15
 12
2.15
 22
1.15
 13
2.15
 23
1.15
  0
ENDBLK
  8
0
  0
BLOCK
  8
0
  2
B50892_00991007
 70
0
 10
0
 20
0
  0
TEXT
  8
1
 40
2.4
 41
0.75
  1
12
  7
STANDARD
 10
-17.3661715825399
 20
4.88425443967184
  0
TEXT
  8
1
 40
2.4
 41
0.75
  1
3
  7
STANDARD
 73
3
 10
11.1661715825399
 20
-5.64351296424866
 11
11.1661715825399
 21
-5.64351296424866
  0
TEXT
  8
1
 40
2.4
 41
0.75
  1
1
  7
STANDARD
 72
2
 73
3
 10
5.76617158253988
 20
-5.64351296424866
 11
5.76617158253988
 21
-5.64351296424866
  0
TEXT
  8
1
 40
2.4
 41
0.75
  1
2
  7
STANDARD
 72
2
 10
6.06617158253987
 20
5.51202184359233
 11
6.06617158253987
 21
5.51202184359233
  0
LINE
  8
1
 10
10.3661715825399
 20
-4.34351296424866
 11
10.3661715825399
 21
-8.34351296424866
  0
LINE
  8
1
 10
6.36617158253987
 20
-4.34351296424866
 11
6.36617158253987
 21
-8.34351296424866
  0
LINE
  8
1
 10
6.36617158253987
 20
3.65648703575134
 11
6.36617158253987
 21
7.65648703575134
  0
TEXT
  8
1
 40
2.4
 41
0.75
  1
12
  7
STANDARD
 72
2
 73
3
 10
-10.0338284174601
 20
-5.54351296424866
 11
-10.0338284174601
 21
-5.54351296424866
  0
LINE
  8
1
 10
-9.63382841746012
 20
-4.34351296424866
 11
-9.63382841746012
 21
-8.34351296424866
  0
POLYLINE
  8
1
 66
1
  0
VERTEX
  8
1
 10
17.3661715825399
 20
-2.34351296424866
  0
VERTEX
  8
1
 10
16.9495049158732
 20
-4.34351296424866
  0
VERTEX
  8
1
 10
16.1161715825399
 20
-0.34351296424866
  0
VERTEX
  8
1
 10
15.2828382492066
 20
-4.34351296424866
  0
VERTEX
  8
1
 10
14.4495049158732
 20
-0.34351296424866
  0
VERTEX
  8
1
 10
13.6161715825399
 20
-4.34351296424866
  0
VERTEX
  8
1
 10
12.7828382492066
 20
-0.34351296424866
  0
VERTEX
  8
1
 10
12.3661715825399
 20
-2.34351296424866
  0
SEQEND
  8
1
  0
LINE
  8
1
 10
-13.6338284174601
 20
-4.34351296424866
 11
-11.6338284174601
 21
-0.343512964248659
  0
POLYLINE
  8
1
 66
1
  0
VERTEX
  8
1
 10
-15.6338284174601
 20
-0.34351296424866
  0
VERTEX
  8
1
 10
-9.63382841746012
 20
-0.34351296424866
  0
VERTEX
  8
1
 10
-9.63382841746012
 20
-4.34351296424866
  0
VERTEX
  8
1
 10
-15.6338284174601
 20
-4.34351296424866
  0
VERTEX
  8
1
 10
-15.6338284174601
 20
-0.34351296424866
  0
SEQEND
  8
1
  0
LINE
  8
1
 10
-9.63382841746012
 20
-0.343512964248659
 11
-9.63382841746012
 21
-4.34351296424866
  0
POLYLINE
  8
1
 66
1
  0
VERTEX
  8
1
 10
-9.63382841746012
 20
-0.34351296424866
  0
VERTEX
  8
1
 10
-3.63382841746012
 20
-0.34351296424866
  0
VERTEX
  8
1
 10
-3.63382841746012
 20
-4.34351296424866
  0
VERTEX
  8
1
 10
-9.63382841746012
 20
-4.34351296424866
  0
VERTEX
  8
1
 10
-9.63382841746012
 20
-0.34351296424866
  0
SEQEND
  8
1
  0
LINE
  8
1
 10
-9.63382841746012
 20
-0.343512964248659
 11
-6.16972680232237
 21
-2.34351296424866
  0
LINE
  8
1
 10
-9.63382841746012
 20
-4.34351296424866
 11
-6.16972680232237
 21
-2.34351296424866
  0
LINE
  8
1
 10
-13.6338284174601
 20
3.15648703575134
 11
-9.63382841746012
 21
3.15648703575134
  0
LINE
  8
1
 10
-13.6338284174601
 20
3.65648703575134
 11
-13.6338284174601
 21
0.656487035751341
  0
LINE
  8
1
 10
-13.6338284174601
 20
1.15648703575134
 11
-9.63382841746012
 21
1.15648703575134
  0
LINE
  8
1
 10
-9.63382841746012
 20
-0.343512964248659
 11
-9.63382841746012
 21
3.65648703575134
  0
LINE
  8
1
 10
6.36617158253987
 20
-4.34351296424866
 11
6.36617158253987
 21
-2.34351296424866
  0
INSERT
  8
1
  2
LCBP1
 10
6.36617158253987
 20
-2.34351296424866
 50
90
  0
POLYLINE
  8
1
 66
1
  0
VERTEX
  8
1
 10
4.36617158253987
 20
3.65648703575134
  0
VERTEX
  8
1
 10
12.3661715825399
 20
3.65648703575134
  0
VERTEX
  8
1
 10
12.3661715825399
 20
-4.34351296424866
  0
VERTEX
  8
1
 10
4.36617158253987
 20
-4.34351296424866
  0
VERTEX
  8
1
 10
4.36617158253987
 20
3.65648703575134
  0
SEQEND
  8
1
  0
LINE
  8
1
 10
6.36617158253987
 20
3.65648703575134
 11
10.3661715825399
 21
-4.34351296424866
  0
INSERT
  8
1
  2
LCA1
 10
10.3661715825399
 20
-4.34351296424866
 50
-63.434948822922
  0
POLYLINE
  8
1
 66
1
  0
VERTEX
  8
1
 10
-3.63382841746013
 20
3.65648703575134
  0
VERTEX
  8
1
 10
4.36617158253988
 20
3.65648703575134
  0
VERTEX
  8
1
 10
4.36617158253988
 20
-4.34351296424866
  0
VERTEX
  8
1
 10
-3.63382841746013
 20
-4.34351296424866
  0
VERTEX
  8
1
 10
-3.63382841746013
 20
3.65648703575134
  0
SEQEND
  8
1
  0
LINE
  8
1
 10
2.36617158253987
 20
-4.34351296424866
 11
2.36617158253987
 21
-2.34351296424866
  0
INSERT
  8
1
  2
LCBP1
 10
2.36617158253987
 20
-2.34351296424866
 50
90
  0
LINE
  8
1
 10
-1.63382841746012
 20
-4.34351296424866
 11
-1.63382841746012
 21
3.65648703575134
  0
INSERT
  8
1
  2
LCA1
 10
-1.63382841746012
 20
3.65648703575134
 50
90
  0
CIRCLE
  8
CONNECTIONS
 10
-15.6490766525269
 20
-2.44351296424866
 40
0
  0
CIRCLE
  8
CONNECTIONS
 10
6.36617158253987
 20
7.65648703575134
 40
0
  0
CIRCLE
  8
CONNECTIONS
 10
6.36617158253987
 20
-8.34351296424866
 40
0
  0
CIRCLE
  8
CONNECTIONS
 10
10.3661715825399
 20
-8.34351296424866
 40
0
  0
CIRCLE
  8
CONNECTIONS
 10
-9.63382841746012
 20
-8.34351296424866
 40
0
  0
ENDBLK
  8
0
  0
ENDSEC
  0
SECTION
  2
ENTITIES
  0
INSERT
  8
1
  2
B50892_00991007
 10
17.3661715825399
 20
8.34351296424865
  0
ENDSEC
  0
EOF
