ISO-10303-21;
HEADER;
/* Generated by software containing ST-Developer
 * from STEP Tools, Inc. (www.steptools.com) 
 */

FILE_DESCRIPTION(
/* description */ ('Unknown'),
/* implementation_level */ '2;1');

FILE_NAME(
/* name */ 
'\\\\festo.net\\dfs01\\INT\\Data\\CustomerSolutions\\CS\\US_CS\\21760x
x\\2176084\\A\\2_Design\\2.3_Drawings\\SASF-C-HD-F35-M27_3D-CAD.stp',
/* time_stamp */ '2021-10-07T11:45:48-04:00',
/* author */ ('us0alz'),
/* organization */ (''),
/* preprocessor_version */ 'ST-DEVELOPER v17',
/* originating_system */ 'Autodesk Inventor 2019',
/* authorisation */ '  ');

FILE_SCHEMA (('AUTOMOTIVE_DESIGN { 1 0 10303 214 3 1 1 }'));
ENDSEC;

DATA;
#10=MECHANICAL_DESIGN_GEOMETRIC_PRESENTATION_REPRESENTATION('',(#13),#342);
#11=SHAPE_REPRESENTATION_RELATIONSHIP('SRR','None',#349,#12);
#12=ADVANCED_BREP_SHAPE_REPRESENTATION('',(#14),#341);
#13=STYLED_ITEM('',(#359),#14);
#14=MANIFOLD_SOLID_BREP('Solid1',#177);
#15=CYLINDRICAL_SURFACE('',#205,12.3);
#16=CYLINDRICAL_SURFACE('',#211,12.7);
#17=CYLINDRICAL_SURFACE('',#223,16.75);
#18=LINE('',#302,#25);
#19=LINE('',#307,#26);
#20=LINE('',#314,#27);
#21=LINE('',#319,#28);
#22=LINE('',#323,#29);
#23=LINE('',#336,#30);
#24=LINE('',#338,#31);
#25=VECTOR('',#242,16.75);
#26=VECTOR('',#247,12.3);
#27=VECTOR('',#256,12.3);
#28=VECTOR('',#261,12.7);
#29=VECTOR('',#266,12.7);
#30=VECTOR('',#283,16.55);
#31=VECTOR('',#286,16.75);
#32=CONICAL_SURFACE('',#202,16.75,0.785398163397448);
#33=CONICAL_SURFACE('',#208,12.3,1.04719755119662);
#34=CONICAL_SURFACE('',#214,12.7,0.785398163397466);
#35=CONICAL_SURFACE('',#220,16.55,0.785398163397448);
#36=FACE_BOUND('',#48,.T.);
#37=FACE_OUTER_BOUND('',#47,.T.);
#38=FACE_OUTER_BOUND('',#49,.T.);
#39=FACE_OUTER_BOUND('',#50,.T.);
#40=FACE_OUTER_BOUND('',#51,.T.);
#41=FACE_OUTER_BOUND('',#52,.T.);
#42=FACE_OUTER_BOUND('',#53,.T.);
#43=FACE_OUTER_BOUND('',#54,.T.);
#44=FACE_OUTER_BOUND('',#55,.T.);
#45=FACE_OUTER_BOUND('',#56,.T.);
#46=FACE_OUTER_BOUND('',#57,.T.);
#47=EDGE_LOOP('',(#116,#117));
#48=EDGE_LOOP('',(#118,#119));
#49=EDGE_LOOP('',(#120,#121,#122,#123,#124,#125));
#50=EDGE_LOOP('',(#126,#127,#128,#129,#130,#131));
#51=EDGE_LOOP('',(#132,#133,#134,#135,#136,#137));
#52=EDGE_LOOP('',(#138,#139,#140,#141,#142,#143));
#53=EDGE_LOOP('',(#144,#145,#146,#147,#148,#149));
#54=EDGE_LOOP('',(#150,#151));
#55=EDGE_LOOP('',(#152));
#56=EDGE_LOOP('',(#153,#154,#155,#156,#157));
#57=EDGE_LOOP('',(#158,#159,#160,#161,#162,#163));
#58=CIRCLE('',#198,16.55);
#59=CIRCLE('',#199,16.55);
#60=CIRCLE('',#200,12.3);
#61=CIRCLE('',#201,12.3);
#62=CIRCLE('',#203,16.75);
#63=CIRCLE('',#204,16.75);
#64=CIRCLE('',#206,12.3);
#65=CIRCLE('',#207,12.3);
#66=CIRCLE('',#209,12.7);
#67=CIRCLE('',#210,12.7);
#68=CIRCLE('',#212,12.7);
#69=CIRCLE('',#213,12.7);
#70=CIRCLE('',#215,12.3);
#71=CIRCLE('',#216,12.3);
#72=CIRCLE('',#219,16.55);
#73=CIRCLE('',#221,16.75);
#74=CIRCLE('',#222,16.75);
#75=VERTEX_POINT('',#289);
#76=VERTEX_POINT('',#290);
#77=VERTEX_POINT('',#293);
#78=VERTEX_POINT('',#294);
#79=VERTEX_POINT('',#298);
#80=VERTEX_POINT('',#299);
#81=VERTEX_POINT('',#304);
#82=VERTEX_POINT('',#305);
#83=VERTEX_POINT('',#310);
#84=VERTEX_POINT('',#311);
#85=VERTEX_POINT('',#316);
#86=VERTEX_POINT('',#317);
#87=VERTEX_POINT('',#322);
#88=VERTEX_POINT('',#324);
#89=VERTEX_POINT('',#329);
#90=VERTEX_POINT('',#332);
#91=VERTEX_POINT('',#333);
#92=EDGE_CURVE('',#75,#76,#58,.T.);
#93=EDGE_CURVE('',#76,#75,#59,.T.);
#94=EDGE_CURVE('',#77,#78,#60,.T.);
#95=EDGE_CURVE('',#78,#77,#61,.T.);
#96=EDGE_CURVE('',#79,#80,#62,.T.);
#97=EDGE_CURVE('',#80,#79,#63,.T.);
#98=EDGE_CURVE('',#80,#76,#18,.T.);
#99=EDGE_CURVE('',#81,#82,#64,.T.);
#100=EDGE_CURVE('',#82,#78,#19,.T.);
#101=EDGE_CURVE('',#82,#81,#65,.T.);
#102=EDGE_CURVE('',#83,#84,#66,.T.);
#103=EDGE_CURVE('',#84,#83,#67,.T.);
#104=EDGE_CURVE('',#83,#81,#20,.T.);
#105=EDGE_CURVE('',#85,#86,#68,.T.);
#106=EDGE_CURVE('',#86,#84,#21,.T.);
#107=EDGE_CURVE('',#86,#85,#69,.T.);
#108=EDGE_CURVE('',#86,#87,#22,.T.);
#109=EDGE_CURVE('',#87,#88,#70,.T.);
#110=EDGE_CURVE('',#88,#87,#71,.T.);
#111=EDGE_CURVE('',#89,#89,#72,.T.);
#112=EDGE_CURVE('',#90,#91,#73,.T.);
#113=EDGE_CURVE('',#91,#90,#74,.T.);
#114=EDGE_CURVE('',#90,#89,#23,.T.);
#115=EDGE_CURVE('',#80,#91,#24,.T.);
#116=ORIENTED_EDGE('',*,*,#92,.F.);
#117=ORIENTED_EDGE('',*,*,#93,.F.);
#118=ORIENTED_EDGE('',*,*,#94,.T.);
#119=ORIENTED_EDGE('',*,*,#95,.T.);
#120=ORIENTED_EDGE('',*,*,#96,.F.);
#121=ORIENTED_EDGE('',*,*,#97,.F.);
#122=ORIENTED_EDGE('',*,*,#98,.T.);
#123=ORIENTED_EDGE('',*,*,#93,.T.);
#124=ORIENTED_EDGE('',*,*,#92,.T.);
#125=ORIENTED_EDGE('',*,*,#98,.F.);
#126=ORIENTED_EDGE('',*,*,#99,.T.);
#127=ORIENTED_EDGE('',*,*,#100,.T.);
#128=ORIENTED_EDGE('',*,*,#94,.F.);
#129=ORIENTED_EDGE('',*,*,#95,.F.);
#130=ORIENTED_EDGE('',*,*,#100,.F.);
#131=ORIENTED_EDGE('',*,*,#101,.T.);
#132=ORIENTED_EDGE('',*,*,#102,.T.);
#133=ORIENTED_EDGE('',*,*,#103,.T.);
#134=ORIENTED_EDGE('',*,*,#104,.T.);
#135=ORIENTED_EDGE('',*,*,#101,.F.);
#136=ORIENTED_EDGE('',*,*,#99,.F.);
#137=ORIENTED_EDGE('',*,*,#104,.F.);
#138=ORIENTED_EDGE('',*,*,#105,.T.);
#139=ORIENTED_EDGE('',*,*,#106,.T.);
#140=ORIENTED_EDGE('',*,*,#102,.F.);
#141=ORIENTED_EDGE('',*,*,#103,.F.);
#142=ORIENTED_EDGE('',*,*,#106,.F.);
#143=ORIENTED_EDGE('',*,*,#107,.T.);
#144=ORIENTED_EDGE('',*,*,#105,.F.);
#145=ORIENTED_EDGE('',*,*,#107,.F.);
#146=ORIENTED_EDGE('',*,*,#108,.T.);
#147=ORIENTED_EDGE('',*,*,#109,.T.);
#148=ORIENTED_EDGE('',*,*,#110,.T.);
#149=ORIENTED_EDGE('',*,*,#108,.F.);
#150=ORIENTED_EDGE('',*,*,#110,.F.);
#151=ORIENTED_EDGE('',*,*,#109,.F.);
#152=ORIENTED_EDGE('',*,*,#111,.T.);
#153=ORIENTED_EDGE('',*,*,#112,.T.);
#154=ORIENTED_EDGE('',*,*,#113,.T.);
#155=ORIENTED_EDGE('',*,*,#114,.T.);
#156=ORIENTED_EDGE('',*,*,#111,.F.);
#157=ORIENTED_EDGE('',*,*,#114,.F.);
#158=ORIENTED_EDGE('',*,*,#96,.T.);
#159=ORIENTED_EDGE('',*,*,#115,.T.);
#160=ORIENTED_EDGE('',*,*,#112,.F.);
#161=ORIENTED_EDGE('',*,*,#113,.F.);
#162=ORIENTED_EDGE('',*,*,#115,.F.);
#163=ORIENTED_EDGE('',*,*,#97,.T.);
#164=PLANE('',#197);
#165=PLANE('',#217);
#166=PLANE('',#218);
#167=ADVANCED_FACE('',(#37,#36),#164,.T.);
#168=ADVANCED_FACE('',(#38),#32,.T.);
#169=ADVANCED_FACE('',(#39),#15,.T.);
#170=ADVANCED_FACE('',(#40),#33,.T.);
#171=ADVANCED_FACE('',(#41),#16,.T.);
#172=ADVANCED_FACE('',(#42),#34,.T.);
#173=ADVANCED_FACE('',(#43),#165,.T.);
#174=ADVANCED_FACE('',(#44),#166,.T.);
#175=ADVANCED_FACE('',(#45),#35,.T.);
#176=ADVANCED_FACE('',(#46),#17,.T.);
#177=CLOSED_SHELL('',(#167,#168,#169,#170,#171,#172,#173,#174,#175,#176));
#178=DERIVED_UNIT_ELEMENT(#180,1.);
#179=DERIVED_UNIT_ELEMENT(#344,3.);
#180=(
MASS_UNIT()
NAMED_UNIT(*)
SI_UNIT($,.GRAM.)
);
#181=DERIVED_UNIT((#178,#179));
#182=MEASURE_REPRESENTATION_ITEM('density measure',
POSITIVE_RATIO_MEASURE(1.),#181);
#183=PROPERTY_DEFINITION_REPRESENTATION(#188,#185);
#184=PROPERTY_DEFINITION_REPRESENTATION(#189,#186);
#185=REPRESENTATION('material name',(#187),#341);
#186=REPRESENTATION('density',(#182),#341);
#187=DESCRIPTIVE_REPRESENTATION_ITEM('Generic','Generic');
#188=PROPERTY_DEFINITION('material property','material name',#351);
#189=PROPERTY_DEFINITION('material property','density of part',#351);
#190=DATE_TIME_ROLE('creation_date');
#191=APPLIED_DATE_AND_TIME_ASSIGNMENT(#192,#190,(#351));
#192=DATE_AND_TIME(#193,#194);
#193=CALENDAR_DATE(2021,7,10);
#194=LOCAL_TIME(11,22,22.,#195);
#195=COORDINATED_UNIVERSAL_TIME_OFFSET(0,0,.BEHIND.);
#196=AXIS2_PLACEMENT_3D('placement',#287,#224,#225);
#197=AXIS2_PLACEMENT_3D('',#288,#226,#227);
#198=AXIS2_PLACEMENT_3D('',#291,#228,#229);
#199=AXIS2_PLACEMENT_3D('',#292,#230,#231);
#200=AXIS2_PLACEMENT_3D('',#295,#232,#233);
#201=AXIS2_PLACEMENT_3D('',#296,#234,#235);
#202=AXIS2_PLACEMENT_3D('',#297,#236,#237);
#203=AXIS2_PLACEMENT_3D('',#300,#238,#239);
#204=AXIS2_PLACEMENT_3D('',#301,#240,#241);
#205=AXIS2_PLACEMENT_3D('',#303,#243,#244);
#206=AXIS2_PLACEMENT_3D('',#306,#245,#246);
#207=AXIS2_PLACEMENT_3D('',#308,#248,#249);
#208=AXIS2_PLACEMENT_3D('',#309,#250,#251);
#209=AXIS2_PLACEMENT_3D('',#312,#252,#253);
#210=AXIS2_PLACEMENT_3D('',#313,#254,#255);
#211=AXIS2_PLACEMENT_3D('',#315,#257,#258);
#212=AXIS2_PLACEMENT_3D('',#318,#259,#260);
#213=AXIS2_PLACEMENT_3D('',#320,#262,#263);
#214=AXIS2_PLACEMENT_3D('',#321,#264,#265);
#215=AXIS2_PLACEMENT_3D('',#325,#267,#268);
#216=AXIS2_PLACEMENT_3D('',#326,#269,#270);
#217=AXIS2_PLACEMENT_3D('',#327,#271,#272);
#218=AXIS2_PLACEMENT_3D('',#328,#273,#274);
#219=AXIS2_PLACEMENT_3D('',#330,#275,#276);
#220=AXIS2_PLACEMENT_3D('',#331,#277,#278);
#221=AXIS2_PLACEMENT_3D('',#334,#279,#280);
#222=AXIS2_PLACEMENT_3D('',#335,#281,#282);
#223=AXIS2_PLACEMENT_3D('',#337,#284,#285);
#224=DIRECTION('axis',(0.,0.,1.));
#225=DIRECTION('refdir',(1.,0.,0.));
#226=DIRECTION('center_axis',(6.12303176911189E-17,1.,1.22460635382238E-16));
#227=DIRECTION('ref_axis',(0.,-1.22460635382238E-16,1.));
#228=DIRECTION('center_axis',(-6.12303176911189E-17,-1.,-1.22460635382238E-16));
#229=DIRECTION('ref_axis',(0.,1.22460635382238E-16,-1.));
#230=DIRECTION('center_axis',(-6.12303176911189E-17,-1.,-1.22460635382238E-16));
#231=DIRECTION('ref_axis',(0.,1.22460635382238E-16,-1.));
#232=DIRECTION('center_axis',(-6.12303176911189E-17,-1.,-1.22460635382238E-16));
#233=DIRECTION('ref_axis',(0.,1.22460635382238E-16,-1.));
#234=DIRECTION('center_axis',(-6.12303176911189E-17,-1.,-1.22460635382238E-16));
#235=DIRECTION('ref_axis',(0.,1.22460635382238E-16,-1.));
#236=DIRECTION('center_axis',(-6.12303176911189E-17,-1.,-1.22460635382238E-16));
#237=DIRECTION('ref_axis',(0.,1.22460635382238E-16,-1.));
#238=DIRECTION('center_axis',(-6.12303176911189E-17,-1.,-1.22460635382238E-16));
#239=DIRECTION('ref_axis',(0.,1.22460635382238E-16,-1.));
#240=DIRECTION('center_axis',(-6.12303176911189E-17,-1.,-1.22460635382238E-16));
#241=DIRECTION('ref_axis',(0.,1.22460635382238E-16,-1.));
#242=DIRECTION('',(1.29891978477146E-16,0.707106781186548,-0.707106781186547));
#243=DIRECTION('center_axis',(6.12303176911189E-17,1.,1.22460635382238E-16));
#244=DIRECTION('ref_axis',(0.,1.22460635382238E-16,-1.));
#245=DIRECTION('center_axis',(-6.12303176911189E-17,-1.,-1.22460635382238E-16));
#246=DIRECTION('ref_axis',(0.,1.22460635382238E-16,-1.));
#247=DIRECTION('',(-6.12303176911189E-17,-1.,-1.22460635382238E-16));
#248=DIRECTION('center_axis',(-6.12303176911189E-17,-1.,-1.22460635382238E-16));
#249=DIRECTION('ref_axis',(0.,1.22460635382238E-16,-1.));
#250=DIRECTION('center_axis',(6.12303176911189E-17,1.,1.22460635382238E-16));
#251=DIRECTION('ref_axis',(0.,-1.22460635382238E-16,1.));
#252=DIRECTION('center_axis',(-6.12303176911189E-17,-1.,-1.22460635382238E-16));
#253=DIRECTION('ref_axis',(0.,1.22460635382238E-16,-1.));
#254=DIRECTION('center_axis',(-6.12303176911189E-17,-1.,-1.22460635382238E-16));
#255=DIRECTION('ref_axis',(0.,1.22460635382238E-16,-1.));
#256=DIRECTION('',(7.54423650269338E-17,-0.499999999999981,0.86602540378445));
#257=DIRECTION('center_axis',(6.12303176911189E-17,1.,1.22460635382238E-16));
#258=DIRECTION('ref_axis',(0.,1.22460635382238E-16,-1.));
#259=DIRECTION('center_axis',(-6.12303176911189E-17,-1.,-1.22460635382238E-16));
#260=DIRECTION('ref_axis',(0.,1.22460635382238E-16,-1.));
#261=DIRECTION('',(-6.12303176911189E-17,-1.,-1.22460635382238E-16));
#262=DIRECTION('center_axis',(-6.12303176911189E-17,-1.,-1.22460635382238E-16));
#263=DIRECTION('ref_axis',(0.,1.22460635382238E-16,-1.));
#264=DIRECTION('center_axis',(-6.12303176911189E-17,-1.,-1.22460635382238E-16));
#265=DIRECTION('ref_axis',(0.,1.22460635382238E-16,-1.));
#266=DIRECTION('',(1.29891978477147E-16,0.707106781186535,-0.70710678118656));
#267=DIRECTION('center_axis',(-6.12303176911189E-17,-1.,-1.22460635382238E-16));
#268=DIRECTION('ref_axis',(0.,1.22460635382238E-16,-1.));
#269=DIRECTION('center_axis',(-6.12303176911189E-17,-1.,-1.22460635382238E-16));
#270=DIRECTION('ref_axis',(0.,1.22460635382238E-16,-1.));
#271=DIRECTION('center_axis',(6.12303176911189E-17,1.,1.22460635382238E-16));
#272=DIRECTION('ref_axis',(0.,-1.22460635382238E-16,1.));
#273=DIRECTION('center_axis',(-6.12303176911189E-17,-1.,-1.22460635382238E-16));
#274=DIRECTION('ref_axis',(0.,1.22460635382238E-16,-1.));
#275=DIRECTION('center_axis',(-6.12303176911189E-17,-1.,-1.22460635382238E-16));
#276=DIRECTION('ref_axis',(0.,1.22460635382238E-16,-1.));
#277=DIRECTION('center_axis',(6.12303176911189E-17,1.,1.22460635382238E-16));
#278=DIRECTION('ref_axis',(0.,-1.22460635382238E-16,1.));
#279=DIRECTION('center_axis',(-6.12303176911189E-17,-1.,-1.22460635382238E-16));
#280=DIRECTION('ref_axis',(0.,1.22460635382238E-16,-1.));
#281=DIRECTION('center_axis',(-6.12303176911189E-17,-1.,-1.22460635382238E-16));
#282=DIRECTION('ref_axis',(0.,1.22460635382238E-16,-1.));
#283=DIRECTION('',(4.32992327699525E-17,-0.707106781186548,0.707106781186547));
#284=DIRECTION('center_axis',(6.12303176911189E-17,1.,1.22460635382238E-16));
#285=DIRECTION('ref_axis',(0.,1.22460635382238E-16,-1.));
#286=DIRECTION('',(-6.12303176911189E-17,-1.,-1.22460635382238E-16));
#287=CARTESIAN_POINT('',(0.,0.,0.));
#288=CARTESIAN_POINT('Origin',(2.63902669248722E-15,43.1,12.3));
#289=CARTESIAN_POINT('',(2.63902669248722E-15,43.1,-16.55));
#290=CARTESIAN_POINT('',(6.12236239898355E-16,43.1,16.55));
#291=CARTESIAN_POINT('Origin',(2.63902669248722E-15,43.1,5.27805338497445E-15));
#292=CARTESIAN_POINT('Origin',(2.63902669248722E-15,43.1,5.27805338497445E-15));
#293=CARTESIAN_POINT('',(2.63902669248722E-15,43.1,-12.3));
#294=CARTESIAN_POINT('',(4.14534225543847E-15,43.1,12.3));
#295=CARTESIAN_POINT('Origin',(2.63902669248722E-15,43.1,5.27805338497445E-15));
#296=CARTESIAN_POINT('Origin',(2.63902669248722E-15,43.1,5.27805338497445E-15));
#297=CARTESIAN_POINT('Origin',(2.626780628949E-15,42.9,5.253561257898E-15));
#298=CARTESIAN_POINT('',(2.626780628949E-15,42.9,-16.75));
#299=CARTESIAN_POINT('',(5.75497240377183E-16,42.9,16.75));
#300=CARTESIAN_POINT('Origin',(2.626780628949E-15,42.9,5.253561257898E-15));
#301=CARTESIAN_POINT('Origin',(2.626780628949E-15,42.9,5.253561257898E-15));
#302=CARTESIAN_POINT('',(5.75497240377184E-16,42.9,16.75));
#303=CARTESIAN_POINT('Origin',(0.,0.,0.));
#304=CARTESIAN_POINT('',(2.71250307371656E-15,44.3,-12.3));
#305=CARTESIAN_POINT('',(4.21881863666781E-15,44.3,12.3));
#306=CARTESIAN_POINT('Origin',(2.71250307371656E-15,44.3,5.42500614743313E-15));
#307=CARTESIAN_POINT('',(1.50631556295124E-15,-1.50626581520153E-15,12.3));
#308=CARTESIAN_POINT('Origin',(2.71250307371656E-15,44.3,5.42500614743313E-15));
#309=CARTESIAN_POINT('Origin',(2.71250307371656E-15,44.3,5.42500614743313E-15));
#310=CARTESIAN_POINT('',(2.72664360987718E-15,44.5309401076759,-12.7));
#311=CARTESIAN_POINT('',(4.28194504479432E-15,44.5309401076759,12.7));
#312=CARTESIAN_POINT('Origin',(2.72664360987718E-15,44.5309401076759,5.45328721975436E-15));
#313=CARTESIAN_POINT('Origin',(2.72664360987718E-15,44.5309401076759,5.45328721975436E-15));
#314=CARTESIAN_POINT('',(1.20618751076532E-15,44.3,-12.3));
#315=CARTESIAN_POINT('Origin',(0.,0.,0.));
#316=CARTESIAN_POINT('',(2.85945583617525E-15,46.7,-12.7));
#317=CARTESIAN_POINT('',(4.41475727109239E-15,46.7,12.7));
#318=CARTESIAN_POINT('Origin',(2.85945583617525E-15,46.7,5.7189116723505E-15));
#319=CARTESIAN_POINT('',(1.55530143491714E-15,-1.55525006935442E-15,12.7));
#320=CARTESIAN_POINT('Origin',(2.85945583617525E-15,46.7,5.7189116723505E-15));
#321=CARTESIAN_POINT('Origin',(2.85945583617525E-15,46.7,5.7189116723505E-15));
#322=CARTESIAN_POINT('',(1.37763240030045E-15,47.1,12.3));
#323=CARTESIAN_POINT('',(1.30415440125811E-15,46.7,12.7));
#324=CARTESIAN_POINT('',(2.8839479632517E-15,47.1,-12.3));
#325=CARTESIAN_POINT('Origin',(2.8839479632517E-15,47.1,5.7678959265034E-15));
#326=CARTESIAN_POINT('Origin',(2.8839479632517E-15,47.1,5.7678959265034E-15));
#327=CARTESIAN_POINT('Origin',(2.8839479632517E-15,47.1,9.22291343920615E-32));
#328=CARTESIAN_POINT('Origin',(6.20484623653909E-32,1.01336175778802E-15,
1.24096924730782E-31));
#329=CARTESIAN_POINT('',(1.24096924730782E-31,4.05344703115207E-15,-16.55));
#330=CARTESIAN_POINT('Origin',(1.24096924730782E-31,2.02672351557604E-15,
2.48193849461564E-31));
#331=CARTESIAN_POINT('Origin',(1.24096924730782E-31,2.02672351557604E-15,
2.48193849461564E-31));
#332=CARTESIAN_POINT('',(1.22460635382238E-17,0.200000000000002,-16.75));
#333=CARTESIAN_POINT('',(2.06352945211004E-15,0.199999999999998,16.75));
#334=CARTESIAN_POINT('Origin',(1.22460635382238E-17,0.2,2.44921270764477E-17));
#335=CARTESIAN_POINT('Origin',(1.22460635382238E-17,0.2,2.44921270764477E-17));
#336=CARTESIAN_POINT('',(-2.02679045258887E-15,4.05344703115208E-15,-16.55));
#337=CARTESIAN_POINT('Origin',(0.,0.,0.));
#338=CARTESIAN_POINT('',(2.05128338857182E-15,-2.05121564265249E-15,16.75));
#339=UNCERTAINTY_MEASURE_WITH_UNIT(LENGTH_MEASURE(0.01),#343,
'DISTANCE_ACCURACY_VALUE',
'Maximum model space distance between geometric entities at asserted c
onnectivities');
#340=UNCERTAINTY_MEASURE_WITH_UNIT(LENGTH_MEASURE(0.01),#343,
'DISTANCE_ACCURACY_VALUE',
'Maximum model space distance between geometric entities at asserted c
onnectivities');
#341=(
GEOMETRIC_REPRESENTATION_CONTEXT(3)
GLOBAL_UNCERTAINTY_ASSIGNED_CONTEXT((#339))
GLOBAL_UNIT_ASSIGNED_CONTEXT((#343,#346,#345))
REPRESENTATION_CONTEXT('','3D')
);
#342=(
GEOMETRIC_REPRESENTATION_CONTEXT(3)
GLOBAL_UNCERTAINTY_ASSIGNED_CONTEXT((#340))
GLOBAL_UNIT_ASSIGNED_CONTEXT((#343,#346,#345))
REPRESENTATION_CONTEXT('','3D')
);
#343=(
LENGTH_UNIT()
NAMED_UNIT(*)
SI_UNIT(.MILLI.,.METRE.)
);
#344=(
LENGTH_UNIT()
NAMED_UNIT(*)
SI_UNIT(.CENTI.,.METRE.)
);
#345=(
NAMED_UNIT(*)
SI_UNIT($,.STERADIAN.)
SOLID_ANGLE_UNIT()
);
#346=(
NAMED_UNIT(*)
PLANE_ANGLE_UNIT()
SI_UNIT($,.RADIAN.)
);
#347=SHAPE_DEFINITION_REPRESENTATION(#348,#349);
#348=PRODUCT_DEFINITION_SHAPE('',$,#351);
#349=SHAPE_REPRESENTATION('',(#196),#341);
#350=PRODUCT_DEFINITION_CONTEXT('part definition',#355,'design');
#351=PRODUCT_DEFINITION('SASF-C-HD-F35-M27_3D-CAD',
'SASF-C-HD-F35-M27_3D-CAD',#352,#350);
#352=PRODUCT_DEFINITION_FORMATION(' NONE',$,#357);
#353=PRODUCT_RELATED_PRODUCT_CATEGORY('SASF-C-HD-F35-M27_3D-CAD',
'SASF-C-HD-F35-M27_3D-CAD',(#357));
#354=APPLICATION_PROTOCOL_DEFINITION('international standard',
'automotive_design',2009,#355);
#355=APPLICATION_CONTEXT(
'Core Data for Automotive Mechanical Design Process');
#356=PRODUCT_CONTEXT('part definition',#355,'mechanical');
#357=PRODUCT('SASF-C-HD-F35-M27_3D-CAD','SASF-C-HD-F35-M27_3D-CAD',
'Unknown',(#356));
#358=PRESENTATION_STYLE_ASSIGNMENT((#360));
#359=PRESENTATION_STYLE_ASSIGNMENT((#361));
#360=SURFACE_STYLE_USAGE(.BOTH.,#362);
#361=SURFACE_STYLE_USAGE(.BOTH.,#363);
#362=SURFACE_SIDE_STYLE('',(#364));
#363=SURFACE_SIDE_STYLE('',(#365));
#364=SURFACE_STYLE_FILL_AREA(#366);
#365=SURFACE_STYLE_FILL_AREA(#367);
#366=FILL_AREA_STYLE('',(#368));
#367=FILL_AREA_STYLE('',(#369));
#368=FILL_AREA_STYLE_COLOUR('',#370);
#369=FILL_AREA_STYLE_COLOUR('',#371);
#370=COLOUR_RGB('',0.749019607843137,0.749019607843137,0.749019607843137);
#371=COLOUR_RGB('',0.643137254901961,0.67843137254902,0.698039215686274);
ENDSEC;
END-ISO-10303-21;
