  0
SECTION
  2
HEADER
  9
$LIMMIN
 10
0
 20
0
  9
$LIMMAX
 10
52.5
 20
74.25
  9
$EXTMIN
 10
0
 20
92.7327935695648
  9
$EXTMAX
 10
0
 20
40.205218911171
  0
ENDSEC
  0
SECTION
  2
TABLES
  0
TABLE
  2
LTYPE
 70
9
  0
LTYPE
  2
CONTINUOUS
 70
64
  3
Solid line
 72
65
 73
0
 40
0
  0
LTYPE
  2
DASHED
 70
64
  3
__ __ __ __ __ __ __ __ __
 72
65
 73
2
 40
0.75
 49
0.5
 49
-0.25
  0
LTYPE
  2
DOT
 70
64
  3
...........................
 72
65
 73
2
 40
0.25
 49
0
 49
-0.25
  0
LTYPE
  2
DASHDOT
 70
64
  3
__ . __ . __ . __ . __ . __ . 
 72
65
 73
4
 40
1
 49
0.5
 49
-0.25
 49
0
 49
-0.25
  0
ENDTAB
  0
TABLE
  2
LAYER
 70
10
  0
LAYER
  2
1
 70
0
 62
7
  6
CONTINUOUS
  0
LAYER
  2
CONNECTIONS
 70
0
 62
-7
  6
CONTINUOUS
  0
ENDTAB
  0
ENDSEC
  0
SECTION
  2
BLOCKS
  0
BLOCK
  8
0
  2
TRICON
 70
0
 10
0
 20
0
  0
POLYLINE
  8
1
 70
1
 66
1
 40
0.5
 41
0.5
  0
VERTEX
  8
1
 10
-0.25
 20
0
 42
1
  0
VERTEX
  8
1
 10
0.25
 20
0
 42
1
  0
SEQEND
  8
1
  0
ENDBLK
  8
0
  0
BLOCK
  8
0
  2
TRICONSMALL
 70
0
 10
0
 20
0
  0
POLYLINE
  8
1
 70
1
 66
1
 40
0.25
 41
0.25
  0
VERTEX
  8
1
 10
-0.125
 20
0
 42
1
  0
VERTEX
  8
1
 10
0.125
 20
0
 42
1
  0
SEQEND
  8
1
  0
ENDBLK
  8
0
  0
BLOCK
  8
0
  2
TRICONCIRCLE
 70
0
 10
0
 20
0
  0
CIRCLE
  8
1
 10
0
 20
0
 40
0.5
  0
ENDBLK
  8
0
  0
BLOCK
  8
0
  2
LCBP0
 70
0
 10
0
 20
0
  0
LINE
  8
1
 10
0
 20
-0.46875
 11
0
 21
0.46875
  0
ENDBLK
  8
0
  0
BLOCK
  8
0
  2
LCBP1
 70
0
 10
0
 20
0
  0
LINE
  8
1
 10
0
 20
-0.625
 11
0
 21
0.625
  0
ENDBLK
  8
0
  0
BLOCK
  8
0
  2
LCBP2
 70
0
 10
0
 20
0
  0
LINE
  8
1
 10
0
 20
-0.9375
 11
0
 21
0.9375
  0
ENDBLK
  8
0
  0
BLOCK
  8
0
  2
LCA1
 70
0
 10
0
 20
0
  0
SOLID
  8
1
 62
7 
 10
0
 20
0
 11
-1.4
 21
-0.275
 12
-1.4
 22
0.275
 13
-1.4
 23
0.275
  0
ENDBLK
  8
0
  0
BLOCK
  8
0
  2
LCA2
 70
0
 10
0
 20
0
  0
SOLID
  8
1
 62
7 
 10
0
 20
0
 11
-1.65
 21
-0.525
 12
-1.65
 22
0.525
 13
-1.65
 23
0.525
  0
ENDBLK
  8
0
  0
BLOCK
  8
0
  2
LCA3
 70
0
 10
0
 20
0
  0
SOLID
  8
1
 62
7 
 10
0
 20
0
 11
-2.15
 21
-1.15
 12
-2.15
 22
1.15
 13
-2.15
 23
1.15
  0
ENDBLK
  8
0
  0
BLOCK
  8
0
  2
LCA1R
 70
0
 10
0
 20
0
  0
SOLID
  8
1
 62
7 
 10
0
 20
0
 11
1.4
 21
-0.275
 12
1.4
 22
0.275
 13
1.4
 23
0.275
  0
ENDBLK
  8
0
  0
BLOCK
  8
0
  2
LCA2R
 70
0
 10
0
 20
0
  0
SOLID
  8
1
 62
7 
 10
0
 20
0
 11
1.65
 21
-0.525
 12
1.65
 22
0.525
 13
1.65
 23
0.525
  0
ENDBLK
  8
0
  0
BLOCK
  8
0
  2
LCA3R
 70
0
 10
0
 20
0
  0
SOLID
  8
1
 62
7 
 10
0
 20
0
 11
2.15
 21
-1.15
 12
2.15
 22
1.15
 13
2.15
 23
1.15
  0
ENDBLK
  8
0
  0
BLOCK
  8
0
  2
B136097
 70
0
 10
0
 20
0
  0
TEXT
  8
1
 40
2.19375
 41
0.75
  1
-QM1
  7
STANDARD
 72
2
 10
5.08115434646606
 20
-1.36614723205566
 11
5.08115434646606
 21
-1.36614723205566
  0
POLYLINE
  8
1
 66
1
  0
VERTEX
  8
1
 10
-5.08115434646606
 20
-2.46302223205566
  0
VERTEX
  8
1
 10
5.08115434646606
 20
-2.46302223205566
  0
VERTEX
  8
1
 10
5.08115434646606
 20
2.46302223205566
  0
VERTEX
  8
1
 10
-5.08115434646606
 20
2.46302223205566
  0
VERTEX
  8
1
 10
-5.08115434646606
 20
-2.46302223205566
  0
SEQEND
  8
1
  0
ENDBLK
  8
0
  0
BLOCK
  8
0
  2
B136098
 70
0
 10
0
 20
0
  0
TEXT
  8
1
 40
1.51875
 41
0.75
  1
MB2
  7
STANDARD
 73
2
 10
-2.81677150726318
 20
0
 11
-2.81677150726318
 21
0
  0
ENDBLK
  8
0
  0
BLOCK
  8
0
  2
B136099
 70
0
 10
0
 20
0
  0
TEXT
  8
1
 40
1.51875
 41
0.75
  1
MB1
  7
STANDARD
 72
2
 73
2
 10
2.81677150726318
 20
0
 11
2.81677150726318
 21
0
  0
ENDBLK
  8
0
  0
BLOCK
  8
0
  2
B136071_00995356
 70
0
 10
0
 20
0
  0
POLYLINE
  8
1
  6
DASHDOT
 66
1
  0
VERTEX
  8
1
 10
-40.5625
 20
14.25
  0
VERTEX
  8
1
 10
37.4375
 20
14.25
  0
VERTEX
  8
1
 10
37.4375
 20
-14.25
  0
VERTEX
  8
1
 10
-40.5625
 20
-14.25
  0
VERTEX
  8
1
 10
-40.5625
 20
14.25
  0
SEQEND
  8
1
  0
LINE
  8
1
 10
37.4375
 20
11.25
 11
40.5625
 21
11.25
  0
INSERT
  8
1
  2
LCBP1
 10
40.5625
 20
11.25
 50
0
  0
LINE
  8
1
 10
-18.0625
 20
14.25
 11
-18.0625
 21
17.25
  0
LINE
  8
1
 10
28.4375
 20
14.25
 11
28.4375
 21
17.25
  0
LINE
  8
1
 10
-18.0625
 20
-14.25
 11
-18.0625
 21
-17.25
  0
LINE
  8
1
 10
-12.0625
 20
-14.25
 11
-12.0625
 21
-17.25
  0
LINE
  8
1
 10
25.4375
 20
-14.25
 11
25.4375
 21
-17.25
  0
TEXT
  8
1
 40
1.85625
 41
0.75
  1
14
  7
STANDARD
 10
5.23824262619021
 20
0.648950552940369
  0
TEXT
  8
1
 40
1.85625
 41
0.75
  1
14
  7
STANDARD
 10
-35.1117573738098
 20
0.648950552940369
  0
LINE
  8
1
 10
28.4375
 20
11.25
 11
37.4375
 21
11.25
  0
LINE
  8
1
 10
-18.0625
 20
-3.75
 11
-18.0625
 21
-14.25
  0
LINE
  8
1
 10
-12.0625
 20
-3.75
 11
-12.0625
 21
-14.25
  0
LINE
  8
1
 10
25.4375
 20
-3.75
 11
25.4375
 21
-14.25
  0
LINE
  8
1
 10
28.4375
 20
2.25
 11
28.4375
 21
14.25
  0
LINE
  8
1
 10
-18.0625
 20
2.25
 11
-18.0625
 21
14.25
  0
POLYLINE
  8
1
 70
1
 66
1
 40
0.375
 41
0.375
  0
VERTEX
  8
1
 10
28.25
 20
11.25
 42
1
  0
VERTEX
  8
1
 10
28.625
 20
11.25
 42
1
  0
SEQEND
  8
1
  0
POLYLINE
  8
1
 70
1
 66
1
 40
0.375
 41
0.375
  0
VERTEX
  8
1
 10
-18.25
 20
-11.25
 42
1
  0
VERTEX
  8
1
 10
-17.875
 20
-11.25
 42
1
  0
SEQEND
  8
1
  0
LINE
  8
1
 10
-18.0625
 20
-11.25
 11
22.4375
 21
-11.25
  0
LINE
  8
1
  6
DOT
 10
-33.0625
 20
-5.25
 11
23.9375
 21
-5.25
  0
LINE
  8
1
  6
DOT
 10
23.9375
 20
-5.25
 11
25.4375
 21
-3.75
  0
LINE
  8
1
 10
22.4375
 20
-3.75
 11
22.4375
 21
-11.25
  0
LINE
  8
1
 10
28.4375
 20
-3.75
 11
28.4375
 21
-8.25
  0
LINE
  8
1
 10
-15.0625
 20
-3.75
 11
-15.0625
 21
-8.25
  0
LINE
  8
1
 10
-0.0625
 20
11.25
 11
-0.0625
 21
-8.25
  0
LINE
  8
1
 10
-3.0625
 20
8.25
 11
-3.0625
 21
-8.25
  0
LINE
  8
1
 10
-0.0625
 20
-8.25
 11
28.4375
 21
-8.25
  0
LINE
  8
1
 10
-3.0625
 20
-8.25
 11
-15.0625
 21
-8.25
  0
POLYLINE
  8
1
 70
1
 66
1
 40
0.375
 41
0.375
  0
VERTEX
  8
1
 10
7.25
 20
-5.25
 42
1
  0
VERTEX
  8
1
 10
7.625
 20
-5.25
 42
1
  0
SEQEND
  8
1
  0
LINE
  8
1
  6
DOT
 10
7.4375
 20
-5.25
 11
7.4375
 21
-3.75
  0
LINE
  8
1
  6
DOT
 10
-33.0625
 20
-3.75
 11
-33.0625
 21
-5.25
  0
LINE
  8
1
 10
22.4375
 20
8.25
 11
-3.0625
 21
8.25
  0
LINE
  8
1
 10
22.4375
 20
2.25
 11
22.4375
 21
8.25
  0
LINE
  8
1
 10
-12.0625
 20
11.25
 11
-0.0625
 21
11.25
  0
LINE
  8
1
 10
-12.0625
 20
2.25
 11
-12.0625
 21
11.25
  0
LINE
  8
1
 10
4.4375
 20
-3.75
 11
5.9375
 21
-0.75
  0
POLYLINE
  8
1
 66
1
  0
VERTEX
  8
1
 10
2.9375
 20
-0.75
  0
VERTEX
  8
1
 10
7.4375
 20
-0.75
  0
VERTEX
  8
1
 10
7.4375
 20
-3.75
  0
VERTEX
  8
1
 10
2.9375
 20
-3.75
  0
VERTEX
  8
1
 10
2.9375
 20
-0.75
  0
SEQEND
  8
1
  0
LINE
  8
1
 10
-36.0625
 20
-3.75
 11
-34.5625
 21
-0.75
  0
POLYLINE
  8
1
 66
1
  0
VERTEX
  8
1
 10
-37.5625
 20
-0.75
  0
VERTEX
  8
1
 10
-33.0625
 20
-0.75
  0
VERTEX
  8
1
 10
-33.0625
 20
-3.75
  0
VERTEX
  8
1
 10
-37.5625
 20
-3.75
  0
VERTEX
  8
1
 10
-37.5625
 20
-0.75
  0
SEQEND
  8
1
  0
POLYLINE
  8
1
 66
1
  0
VERTEX
  8
1
 10
33.6875
 20
-2.25
  0
VERTEX
  8
1
 10
33.375
 20
-3.75
  0
VERTEX
  8
1
 10
32.75
 20
-0.75
  0
VERTEX
  8
1
 10
32.125
 20
-3.75
  0
VERTEX
  8
1
 10
31.5
 20
-0.75
  0
VERTEX
  8
1
 10
30.875
 20
-3.75
  0
VERTEX
  8
1
 10
30.25
 20
-0.75
  0
VERTEX
  8
1
 10
29.9375
 20
-2.25
  0
SEQEND
  8
1
  0
POLYLINE
  8
1
 66
1
  0
VERTEX
  8
1
 10
-6.8125
 20
-2.25
  0
VERTEX
  8
1
 10
-7.125
 20
-3.75
  0
VERTEX
  8
1
 10
-7.75
 20
-0.75
  0
VERTEX
  8
1
 10
-8.375
 20
-3.75
  0
VERTEX
  8
1
 10
-9
 20
-0.75
  0
VERTEX
  8
1
 10
-9.625
 20
-3.75
  0
VERTEX
  8
1
 10
-10.25
 20
-0.75
  0
VERTEX
  8
1
 10
-10.5625
 20
-2.25
  0
SEQEND
  8
1
  0
ARC
  8
1
 10
31.2303944699131
 20
4.99202115706033
 40
0.670820393249937
 50
47.6225438058942
 51
201.057492628817
  0
ARC
  8
1
 10
31.1850207315298
 20
4.93960143754675
 40
0.61846584384265
 50
196.339530500047
 51
317.303287032121
  0
LINE
  8
1
 10
31.6625
 20
4.9375
 11
31.6625
 21
4.5625
  0
POLYLINE
  8
1
 66
1
  0
VERTEX
  8
1
 10
31.2125
 20
4.9375
  0
VERTEX
  8
1
 10
31.6625
 20
4.9375
  0
SEQEND
  8
1
  0
LINE
  8
1
 10
33.425
 20
7.125
 11
33.95
 21
7.125
  0
LINE
  8
1
 10
32.3375
 20
7.125
 11
33.6875
 21
7.65
  0
LINE
  8
1
 10
31.8125
 20
7.125
 11
32.3375
 21
7.125
  0
POLYLINE
  8
1
 66
1
  0
VERTEX
  8
1
 10
29.9375
 20
8.25
  0
VERTEX
  8
1
 10
34.4375
 20
8.25
  0
VERTEX
  8
1
 10
34.4375
 20
3.75
  0
VERTEX
  8
1
 10
29.9375
 20
3.75
  0
VERTEX
  8
1
 10
29.9375
 20
8.25
  0
SEQEND
  8
1
  0
LINE
  8
1
 10
29.9375
 20
8.25
 11
34.4375
 21
3.75
  0
LINE
  8
1
 10
29.9375
 20
3.75
 11
29.9375
 21
2.25
  0
ARC
  8
1
 10
-9.26960553008692
 20
4.99202115706033
 40
0.670820393249937
 50
47.6225438058942
 51
201.057492628817
  0
ARC
  8
1
 10
-9.31497926847016
 20
4.93960143754675
 40
0.61846584384265
 50
196.339530500047
 51
317.303287032121
  0
LINE
  8
1
 10
-8.8375
 20
4.9375
 11
-8.8375
 21
4.5625
  0
POLYLINE
  8
1
 66
1
  0
VERTEX
  8
1
 10
-9.2875
 20
4.9375
  0
VERTEX
  8
1
 10
-8.8375
 20
4.9375
  0
SEQEND
  8
1
  0
LINE
  8
1
 10
-7.075
 20
7.125
 11
-6.55
 21
7.125
  0
LINE
  8
1
 10
-8.1625
 20
7.125
 11
-6.8125
 21
7.65
  0
LINE
  8
1
 10
-8.6875
 20
7.125
 11
-8.1625
 21
7.125
  0
POLYLINE
  8
1
 66
1
  0
VERTEX
  8
1
 10
-10.5625
 20
8.25
  0
VERTEX
  8
1
 10
-6.0625
 20
8.25
  0
VERTEX
  8
1
 10
-6.0625
 20
3.75
  0
VERTEX
  8
1
 10
-10.5625
 20
3.75
  0
VERTEX
  8
1
 10
-10.5625
 20
8.25
  0
SEQEND
  8
1
  0
LINE
  8
1
 10
-10.5625
 20
8.25
 11
-6.0625
 21
3.75
  0
LINE
  8
1
 10
-10.5625
 20
3.75
 11
-10.5625
 21
2.25
  0
LINE
  8
1
 10
7.4375
 20
-0.75
 11
7.4375
 21
-3.75
  0
POLYLINE
  8
1
 66
1
  0
VERTEX
  8
1
 10
7.4375
 20
-0.75
  0
VERTEX
  8
1
 10
11.9375
 20
-0.75
  0
VERTEX
  8
1
 10
11.9375
 20
-3.75
  0
VERTEX
  8
1
 10
7.4375
 20
-3.75
  0
VERTEX
  8
1
 10
7.4375
 20
-0.75
  0
SEQEND
  8
1
  0
LINE
  8
1
 10
7.4375
 20
-0.75
 11
10.0355762113533
 21
-2.25
  0
LINE
  8
1
 10
7.4375
 20
-3.75
 11
10.0355762113533
 21
-2.25
  0
LINE
  8
1
 10
-33.0625
 20
-0.75
 11
-33.0625
 21
-3.75
  0
POLYLINE
  8
1
 66
1
  0
VERTEX
  8
1
 10
-33.0625
 20
-0.75
  0
VERTEX
  8
1
 10
-28.5625
 20
-0.75
  0
VERTEX
  8
1
 10
-28.5625
 20
-3.75
  0
VERTEX
  8
1
 10
-33.0625
 20
-3.75
  0
VERTEX
  8
1
 10
-33.0625
 20
-0.75
  0
SEQEND
  8
1
  0
LINE
  8
1
 10
-33.0625
 20
-0.75
 11
-30.4644237886467
 21
-2.25
  0
LINE
  8
1
 10
-33.0625
 20
-3.75
 11
-30.4644237886467
 21
-2.25
  0
LINE
  8
1
 10
22.4375
 20
-3.75
 11
22.4375
 21
2.25
  0
INSERT
  8
1
  2
LCA1
 10
22.4375
 20
2.25
 50
90
  0
INSERT
  8
1
  2
LCA1R
 10
22.4375
 20
-3.75
 50
90
  0
LINE
  8
1
 10
28.4375
 20
-3.75
 11
28.4375
 21
-2.25
  0
INSERT
  8
1
  2
LCBP1
 10
28.4375
 20
-2.25
 50
90
  0
POLYLINE
  8
1
 66
1
  0
VERTEX
  8
1
 10
20.9375
 20
2.25
  0
VERTEX
  8
1
 10
29.9375
 20
2.25
  0
VERTEX
  8
1
 10
29.9375
 20
-3.75
  0
VERTEX
  8
1
 10
20.9375
 20
-3.75
  0
VERTEX
  8
1
 10
20.9375
 20
2.25
  0
SEQEND
  8
1
  0
LINE
  8
1
 10
25.4375
 20
-3.75
 11
28.4375
 21
2.25
  0
INSERT
  8
1
  2
LCA1
 10
28.4375
 20
2.25
 50
63.434948822922
  0
LINE
  8
1
 10
-18.0625
 20
-3.75
 11
-18.0625
 21
2.25
  0
INSERT
  8
1
  2
LCA1
 10
-18.0625
 20
2.25
 50
90
  0
INSERT
  8
1
  2
LCA1R
 10
-18.0625
 20
-3.75
 50
90
  0
LINE
  8
1
 10
-12.0625
 20
-3.75
 11
-12.0625
 21
-2.25
  0
INSERT
  8
1
  2
LCBP1
 10
-12.0625
 20
-2.25
 50
90
  0
POLYLINE
  8
1
 66
1
  0
VERTEX
  8
1
 10
-19.5625
 20
2.25
  0
VERTEX
  8
1
 10
-10.5625
 20
2.25
  0
VERTEX
  8
1
 10
-10.5625
 20
-3.75
  0
VERTEX
  8
1
 10
-19.5625
 20
-3.75
  0
VERTEX
  8
1
 10
-19.5625
 20
2.25
  0
SEQEND
  8
1
  0
LINE
  8
1
 10
-15.0625
 20
-3.75
 11
-12.0625
 21
2.25
  0
INSERT
  8
1
  2
LCA1
 10
-12.0625
 20
2.25
 50
63.434948822922
  0
LINE
  8
1
 10
19.4375
 20
-3.75
 11
19.4375
 21
2.25
  0
INSERT
  8
1
  2
LCA1
 10
19.4375
 20
2.25
 50
90
  0
INSERT
  8
1
  2
LCA1R
 10
19.4375
 20
-3.75
 50
90
  0
LINE
  8
1
 10
13.4375
 20
-3.75
 11
13.4375
 21
-2.25
  0
INSERT
  8
1
  2
LCBP1
 10
13.4375
 20
-2.25
 50
90
  0
POLYLINE
  8
1
 66
1
  0
VERTEX
  8
1
 10
11.9375
 20
2.25
  0
VERTEX
  8
1
 10
20.9375
 20
2.25
  0
VERTEX
  8
1
 10
20.9375
 20
-3.75
  0
VERTEX
  8
1
 10
11.9375
 20
-3.75
  0
VERTEX
  8
1
 10
11.9375
 20
2.25
  0
SEQEND
  8
1
  0
LINE
  8
1
 10
16.4375
 20
-3.75
 11
13.4375
 21
2.25
  0
INSERT
  8
1
  2
LCA1
 10
13.4375
 20
2.25
 50
116.565051177078
  0
LINE
  8
1
 10
-21.0625
 20
-3.75
 11
-21.0625
 21
2.25
  0
INSERT
  8
1
  2
LCA1
 10
-21.0625
 20
2.25
 50
90
  0
INSERT
  8
1
  2
LCA1R
 10
-21.0625
 20
-3.75
 50
90
  0
LINE
  8
1
 10
-27.0625
 20
-3.75
 11
-27.0625
 21
-2.25
  0
INSERT
  8
1
  2
LCBP1
 10
-27.0625
 20
-2.25
 50
90
  0
POLYLINE
  8
1
 66
1
  0
VERTEX
  8
1
 10
-28.5625
 20
2.25
  0
VERTEX
  8
1
 10
-19.5625
 20
2.25
  0
VERTEX
  8
1
 10
-19.5625
 20
-3.75
  0
VERTEX
  8
1
 10
-28.5625
 20
-3.75
  0
VERTEX
  8
1
 10
-28.5625
 20
2.25
  0
SEQEND
  8
1
  0
LINE
  8
1
 10
-24.0625
 20
-3.75
 11
-27.0625
 21
2.25
  0
INSERT
  8
1
  2
LCA1
 10
-27.0625
 20
2.25
 50
116.565051177078
  0
CIRCLE
  8
CONNECTIONS
 10
-18.0625
 20
17.25
 40
0
  0
CIRCLE
  8
CONNECTIONS
 10
28.4375
 20
17.25
 40
0
  0
CIRCLE
  8
CONNECTIONS
 10
-18.0625
 20
-17.25
 40
0
  0
CIRCLE
  8
CONNECTIONS
 10
25.3849856446842
 20
-17.4005274220469
 40
0
  0
CIRCLE
  8
CONNECTIONS
 10
-12.0625
 20
-17.25
 40
0
  0
CIRCLE
  8
CONNECTIONS
 10
40.5625
 20
11.1875
 40
0
  0
CIRCLE
  8
CONNECTIONS
 10
2.9375
 20
-2.25
 40
0
  0
CIRCLE
  8
CONNECTIONS
 10
-37.5625
 20
-2.25
 40
0
  0
ENDBLK
  8
0
  0
BLOCK
  8
0
  2
B136080
 70
0
 10
0
 20
0
  0
TEXT
  8
1
 40
1.51875
 41
0.75
  1
1
  7
STANDARD
 72
2
 10
1.04122138023376
 20
-0.945794320106506
 11
1.04122138023376
 21
-0.945794320106506
  0
ENDBLK
  8
0
  0
BLOCK
  8
0
  2
B136081
 70
0
 10
0
 20
0
  0
TEXT
  8
1
 40
1.51875
 41
0.75
  1
3
  7
STANDARD
 10
-1.04122138023376
 20
-0.945794320106506
  0
ENDBLK
  8
0
  0
BLOCK
  8
0
  2
B136082
 70
0
 10
0
 20
0
  0
TEXT
  8
1
 40
1.51875
 41
0.75
  1
2
  7
STANDARD
 73
2
 10
-1.04122138023376
 20
0
 11
-1.04122138023376
 21
0
  0
ENDBLK
  8
0
  0
BLOCK
  8
0
  2
B136083
 70
0
 10
0
 20
0
  0
TEXT
  8
1
 40
1.51875
 41
0.75
  1
4
  7
STANDARD
 72
2
 73
3
 10
1.04122138023376
 20
1.32548182010651
 11
1.04122138023376
 21
1.32548182010651
  0
ENDBLK
  8
0
  0
BLOCK
  8
0
  2
B136084
 70
0
 10
0
 20
0
  0
TEXT
  8
1
 40
1.51875
 41
0.75
  1
2
  7
STANDARD
 73
3
 10
-1.04122138023376
 20
1.32548182010651
 11
-1.04122138023376
 21
1.32548182010651
  0
ENDBLK
  8
0
  0
BLOCK
  8
0
  2
B136085
 70
0
 10
0
 20
0
  0
TEXT
  8
1
 40
1.51875
 41
0.75
  1
5
  7
STANDARD
 72
2
 10
1.04122138023376
 20
-0.945794320106506
 11
1.04122138023376
 21
-0.945794320106506
  0
ENDBLK
  8
0
  0
ENDSEC
  0
SECTION
  2
ENTITIES
  0
INSERT
  8
1
  2
B136097
 10
37.0811543464661
 20
37.7421966791153
  0
INSERT
  8
1
  2
B136098
 10
89.9790802001953
 20
16.7791744470596
  0
INSERT
  8
1
  2
B136099
 10
41.8455371856689
 20
16.7791744470596
  0
INSERT
  8
1
  2
B136071_00995356
 10
83.4748086929321
 20
19.0291744470596
  0
INSERT
  8
1
  2
B136080
 10
106.883045196533
 20
1.70516932010651
  0
INSERT
  8
1
  2
B136081
 10
73.4415721893311
 20
1.70516932010651
  0
INSERT
  8
1
  2
B136082
 10
123.691572189331
 20
32.5291744470596
  0
INSERT
  8
1
  2
B136083
 10
63.6210873126984
 20
36.0740051269531
  0
INSERT
  8
1
  2
B136084
 10
113.807968091965
 20
36.0740051269531
  0
INSERT
  8
1
  2
B136085
 10
63.3830451965332
 20
1.70516932010651
  0
ENDSEC
  0
EOF
