  0
SECTION
  2
HEADER
  9
$LIMMIN
 10
0
 20
0
  9
$LIMMAX
 10
52.5
 20
74.25
  9
$EXTMIN
 10
0
 20
32.9994311650594
  9
$EXTMAX
 10
0
 20
22.0263308525085
  0
ENDSEC
  0
SECTION
  2
TABLES
  0
TABLE
  2
LTYPE
 70
9
  0
LTYPE
  2
CONTINUOUS
 70
64
  3
Solid line
 72
65
 73
0
 40
0
  0
LTYPE
  2
DASHED
 70
64
  3
__ __ __ __ __ __ __ __ __
 72
65
 73
2
 40
0.75
 49
0.5
 49
-0.25
  0
LTYPE
  2
DOT
 70
64
  3
...........................
 72
65
 73
2
 40
0.25
 49
0
 49
-0.25
  0
LTYPE
  2
DASHDOT
 70
64
  3
__ . __ . __ . __ . __ . __ . 
 72
65
 73
4
 40
1
 49
0.5
 49
-0.25
 49
0
 49
-0.25
  0
ENDTAB
  0
TABLE
  2
LAYER
 70
10
  0
LAYER
  2
1
 70
0
 62
7
  6
CONTINUOUS
  0
LAYER
  2
CONNECTIONS
 70
0
 62
-7
  6
CONTINUOUS
  0
ENDTAB
  0
ENDSEC
  0
SECTION
  2
BLOCKS
  0
BLOCK
  8
0
  2
TRICON
 70
0
 10
0
 20
0
  0
POLYLINE
  8
1
 70
1
 66
1
 40
0.5
 41
0.5
  0
VERTEX
  8
1
 10
-0.25
 20
0
 42
1
  0
VERTEX
  8
1
 10
0.25
 20
0
 42
1
  0
SEQEND
  8
1
  0
ENDBLK
  8
0
  0
BLOCK
  8
0
  2
TRICONSMALL
 70
0
 10
0
 20
0
  0
POLYLINE
  8
1
 70
1
 66
1
 40
0.25
 41
0.25
  0
VERTEX
  8
1
 10
-0.125
 20
0
 42
1
  0
VERTEX
  8
1
 10
0.125
 20
0
 42
1
  0
SEQEND
  8
1
  0
ENDBLK
  8
0
  0
BLOCK
  8
0
  2
TRICONCIRCLE
 70
0
 10
0
 20
0
  0
CIRCLE
  8
1
 10
0
 20
0
 40
0.5
  0
ENDBLK
  8
0
  0
BLOCK
  8
0
  2
LCBP0
 70
0
 10
0
 20
0
  0
LINE
  8
1
 10
0
 20
-0.46875
 11
0
 21
0.46875
  0
ENDBLK
  8
0
  0
BLOCK
  8
0
  2
LCBP1
 70
0
 10
0
 20
0
  0
LINE
  8
1
 10
0
 20
-0.625
 11
0
 21
0.625
  0
ENDBLK
  8
0
  0
BLOCK
  8
0
  2
LCBP2
 70
0
 10
0
 20
0
  0
LINE
  8
1
 10
0
 20
-0.9375
 11
0
 21
0.9375
  0
ENDBLK
  8
0
  0
BLOCK
  8
0
  2
LCA1
 70
0
 10
0
 20
0
  0
SOLID
  8
1
 62
7 
 10
0
 20
0
 11
-1.4
 21
-0.275
 12
-1.4
 22
0.275
 13
-1.4
 23
0.275
  0
ENDBLK
  8
0
  0
BLOCK
  8
0
  2
LCA2
 70
0
 10
0
 20
0
  0
SOLID
  8
1
 62
7 
 10
0
 20
0
 11
-1.65
 21
-0.525
 12
-1.65
 22
0.525
 13
-1.65
 23
0.525
  0
ENDBLK
  8
0
  0
BLOCK
  8
0
  2
LCA3
 70
0
 10
0
 20
0
  0
SOLID
  8
1
 62
7 
 10
0
 20
0
 11
-2.15
 21
-1.15
 12
-2.15
 22
1.15
 13
-2.15
 23
1.15
  0
ENDBLK
  8
0
  0
BLOCK
  8
0
  2
LCA1R
 70
0
 10
0
 20
0
  0
SOLID
  8
1
 62
7 
 10
0
 20
0
 11
1.4
 21
-0.275
 12
1.4
 22
0.275
 13
1.4
 23
0.275
  0
ENDBLK
  8
0
  0
BLOCK
  8
0
  2
LCA2R
 70
0
 10
0
 20
0
  0
SOLID
  8
1
 62
7 
 10
0
 20
0
 11
1.65
 21
-0.525
 12
1.65
 22
0.525
 13
1.65
 23
0.525
  0
ENDBLK
  8
0
  0
BLOCK
  8
0
  2
LCA3R
 70
0
 10
0
 20
0
  0
SOLID
  8
1
 62
7 
 10
0
 20
0
 11
2.15
 21
-1.15
 12
2.15
 22
1.15
 13
2.15
 23
1.15
  0
ENDBLK
  8
0
  0
BLOCK
  8
0
  2
B2374_00997315
 70
0
 10
0
 20
0
  0
POLYLINE
  8
1
 66
1
  0
VERTEX
  8
1
 10
-10.4353803157806
 20
-0.0131653467814132
  0
VERTEX
  8
1
 10
1.06461968421936
 20
-0.0131653467814132
  0
VERTEX
  8
1
 10
1.06461968421936
 20
-2.01316534678141
  0
VERTEX
  8
1
 10
-10.4353803157806
 20
-2.01316534678141
  0
VERTEX
  8
1
 10
-10.4353803157806
 20
-0.0131653467814132
  0
SEQEND
  8
1
  0
POLYLINE
  8
1
 66
1
  0
VERTEX
  8
1
 10
-10.4353803157806
 20
5.48683465321859
  0
VERTEX
  8
1
 10
1.06461968421936
 20
5.48683465321859
  0
VERTEX
  8
1
 10
1.06461968421936
 20
0.986834653218587
  0
VERTEX
  8
1
 10
-10.4353803157806
 20
0.986834653218587
  0
VERTEX
  8
1
 10
-10.4353803157806
 20
5.48683465321859
  0
SEQEND
  8
1
  0
LINE
  8
1
 10
-7.9354026536579
 20
8.98681231534132
 11
-12.9353803157806
 21
3.98683465321854
  0
POLYLINE
  8
1
 66
1
  0
VERTEX
  8
1
 10
-12.9353803157806
 20
8.98683465321859
  0
VERTEX
  8
1
 10
3.06461968421936
 20
8.98683465321859
  0
VERTEX
  8
1
 10
3.06461968421936
 20
-11.0131653467814
  0
VERTEX
  8
1
 10
-12.9353803157806
 20
-11.0131653467814
  0
VERTEX
  8
1
 10
-12.9353803157806
 20
8.98683465321859
  0
SEQEND
  8
1
  0
TEXT
  8
1
 40
1.12499992847443
 41
0.75
  1
U
  7
STANDARD
 72
1
 73
2
 10
-5.1024970372518
 20
-1.09145294825238
 11
-5.1024970372518
 21
-1.09145294825238
  0
TEXT
  8
1
 40
1.12499992847443
 41
0.75
  1
NPN
  7
STANDARD
 73
2
 10
-6.32066807746888
 20
1.90854705174762
 11
-6.32066807746888
 21
1.90854705174762
  0
TEXT
  8
1
 40
1.12499992847443
 41
0.75
  1
PNP/IO-Link
  7
STANDARD
 73
2
 10
-6.31198749542237
 20
3.90854705174763
 11
-6.31198749542237
 21
3.90854705174763
  0
TEXT
  8
1
 40
2.1
 41
0.75
  1
0V
  7
STANDARD
 10
9.16768695513407
 20
-9.91316534678141
  0
TEXT
  8
1
 40
2.1
 41
0.75
  1
+24V
  7
STANDARD
 10
8.24771087964376
 20
6.11157439549764
  0
TEXT
  8
1
 40
2.1
 41
0.75
  1
3
  7
STANDARD
 10
3.56461968421936
 20
-8.0136858622233
  0
TEXT
  8
1
 40
2.1
 41
0.75
  1
5
  7
STANDARD
 10
3.56461968421936
 20
-4.01368586222331
  0
TEXT
  8
1
 40
2.1
 41
0.75
  1
2
  7
STANDARD
 10
3.56461968421936
 20
-0.0136858622233067
  0
TEXT
  8
1
 40
2.1
 41
0.75
  1
4
  7
STANDARD
 10
3.56461968421936
 20
3.98631413777669
  0
TEXT
  8
1
 40
2.1
 41
0.75
  1
1
  7
STANDARD
 10
3.56461968421936
 20
7.98631413777669
  0
TEXT
  8
1
 40
1.8
 41
0.75
  1
P
  7
STANDARD
 72
2
 10
-14.0182345867157
 20
8.16157503128052
 11
-14.0182345867157
 21
8.16157503128052
  0
LINE
  8
1
 10
-12.9353803157806
 20
7.48683465321859
 11
-12.9353803157806
 21
6.48683465321859
  0
LINE
  8
1
 10
-12.9353803157806
 20
7.48683465321859
 11
-11.9353803157806
 21
6.98683465321859
  0
LINE
  8
1
 10
-11.9353803157806
 20
6.98683465321859
 11
-12.9353803157806
 21
6.48683465321859
  0
LINE
  8
1
 10
-12.9353803157806
 20
7.48683465321859
 11
-12.9353803157806
 21
6.48683465321859
  0
LINE
  8
1
 10
-15.9353803157806
 20
6.98683465321859
 11
-12.9353803157806
 21
6.98683465321859
  0
LINE
  8
1
 10
3.06461968421936
 20
-5.01316534678141
 11
6.06461968421936
 21
-5.01316534678141
  0
LINE
  8
1
 10
1.06461968421936
 20
-1.01316534678141
 11
6.06461968421936
 21
-1.01316534678141
  0
LINE
  8
1
 10
1.06461968421936
 20
2.98683465321859
 11
6.06461968421936
 21
2.98683465321859
  0
LINE
  8
1
 10
3.06461968421936
 20
-9.01316534678141
 11
6.06461968421936
 21
-9.01316534678141
  0
LINE
  8
1
 10
3.06461968421936
 20
6.98683465321859
 11
6.06461968421936
 21
6.98683465321859
  0
SOLID
  8
1
 10
6.06461968421936
 20
-8.76316534678141
 11
7.56461968421936
 21
-8.76316534678141
 12
6.06461968421936
 22
-9.26316534678141
 13
7.56461968421936
 23
-9.26316534678141
  0
SOLID
  8
1
 10
7.56461968421936
 20
-9.26316534678141
 11
6.06461968421936
 21
-9.26316534678141
 12
6.06461968421936
 22
-9.26316534678141
 13
6.06461968421936
 23
-8.76316534678141
  0
SOLID
  8
1
 10
6.06461968421936
 20
-4.76316534678141
 11
7.56461968421936
 21
-4.76316534678141
 12
6.06461968421936
 22
-5.26316534678141
 13
7.56461968421936
 23
-5.26316534678141
  0
SOLID
  8
1
 10
7.56461968421936
 20
-5.26316534678141
 11
6.06461968421936
 21
-5.26316534678141
 12
6.06461968421936
 22
-5.26316534678141
 13
6.06461968421936
 23
-4.76316534678141
  0
SOLID
  8
1
 10
6.06461968421936
 20
-0.763165346781413
 11
7.56461968421936
 21
-0.763165346781413
 12
6.06461968421936
 22
-1.26316534678141
 13
7.56461968421936
 23
-1.26316534678141
  0
SOLID
  8
1
 10
7.56461968421936
 20
-1.26316534678141
 11
6.06461968421936
 21
-1.26316534678141
 12
6.06461968421936
 22
-1.26316534678141
 13
6.06461968421936
 23
-0.763165346781413
  0
SOLID
  8
1
 10
6.06461968421936
 20
3.23683465321859
 11
7.56461968421936
 21
3.23683465321859
 12
6.06461968421936
 22
2.73683465321859
 13
7.56461968421936
 23
2.73683465321859
  0
SOLID
  8
1
 10
7.56461968421936
 20
2.73683465321859
 11
6.06461968421936
 21
2.73683465321859
 12
6.06461968421936
 22
2.73683465321859
 13
6.06461968421936
 23
3.23683465321859
  0
SOLID
  8
1
 10
6.06461968421936
 20
7.23683465321859
 11
7.56461968421936
 21
7.23683465321859
 12
6.06461968421936
 22
6.73683465321859
 13
7.56461968421936
 23
6.73683465321859
  0
SOLID
  8
1
 10
7.56461968421936
 20
6.73683465321859
 11
6.06461968421936
 21
6.73683465321859
 12
6.06461968421936
 22
6.73683465321859
 13
6.06461968421936
 23
7.23683465321859
  0
ENDBLK
  8
0
  0
ENDSEC
  0
SECTION
  2
ENTITIES
  0
INSERT
  8
1
  2
B2374_00997315
 10
16.4997155030568
 20
11.0131653467814
  0
ENDSEC
  0
EOF
