  0
SECTION
  2
HEADER
  9
$LIMMIN
 10
0
 20
0
  9
$LIMMAX
 10
52.5
 20
74.25
  9
$EXTMIN
 10
0
 20
32.4514552243551
  9
$EXTMAX
 10
0
 20
12.400199376742
  0
ENDSEC
  0
SECTION
  2
TABLES
  0
TABLE
  2
LTYPE
 70
9
  0
LTYPE
  2
CONTINUOUS
 70
64
  3
Solid line
 72
65
 73
0
 40
0
  0
LTYPE
  2
DASHED
 70
64
  3
__ __ __ __ __ __ __ __ __
 72
65
 73
2
 40
0.75
 49
0.5
 49
-0.25
  0
LTYPE
  2
DOT
 70
64
  3
...........................
 72
65
 73
2
 40
0.25
 49
0
 49
-0.25
  0
LTYPE
  2
DASHDOT
 70
64
  3
__ . __ . __ . __ . __ . __ . 
 72
65
 73
4
 40
1
 49
0.5
 49
-0.25
 49
0
 49
-0.25
  0
ENDTAB
  0
TABLE
  2
LAYER
 70
10
  0
LAYER
  2
1
 70
0
 62
7
  6
CONTINUOUS
  0
LAYER
  2
CONNECTIONS
 70
0
 62
-7
  6
CONTINUOUS
  0
ENDTAB
  0
ENDSEC
  0
SECTION
  2
BLOCKS
  0
BLOCK
  8
0
  2
TRICON
 70
0
 10
0
 20
0
  0
POLYLINE
  8
1
 70
1
 66
1
 40
0.5
 41
0.5
  0
VERTEX
  8
1
 10
-0.25
 20
0
 42
1
  0
VERTEX
  8
1
 10
0.25
 20
0
 42
1
  0
SEQEND
  8
1
  0
ENDBLK
  8
0
  0
BLOCK
  8
0
  2
TRICONSMALL
 70
0
 10
0
 20
0
  0
POLYLINE
  8
1
 70
1
 66
1
 40
0.25
 41
0.25
  0
VERTEX
  8
1
 10
-0.125
 20
0
 42
1
  0
VERTEX
  8
1
 10
0.125
 20
0
 42
1
  0
SEQEND
  8
1
  0
ENDBLK
  8
0
  0
BLOCK
  8
0
  2
TRICONCIRCLE
 70
0
 10
0
 20
0
  0
CIRCLE
  8
1
 10
0
 20
0
 40
0.5
  0
ENDBLK
  8
0
  0
BLOCK
  8
0
  2
LCBP0
 70
0
 10
0
 20
0
  0
LINE
  8
1
 10
0
 20
-0.46875
 11
0
 21
0.46875
  0
ENDBLK
  8
0
  0
BLOCK
  8
0
  2
LCBP1
 70
0
 10
0
 20
0
  0
LINE
  8
1
 10
0
 20
-0.625
 11
0
 21
0.625
  0
ENDBLK
  8
0
  0
BLOCK
  8
0
  2
LCBP2
 70
0
 10
0
 20
0
  0
LINE
  8
1
 10
0
 20
-0.9375
 11
0
 21
0.9375
  0
ENDBLK
  8
0
  0
BLOCK
  8
0
  2
LCA1
 70
0
 10
0
 20
0
  0
SOLID
  8
1
 62
7 
 10
0
 20
0
 11
-1.4
 21
-0.275
 12
-1.4
 22
0.275
 13
-1.4
 23
0.275
  0
ENDBLK
  8
0
  0
BLOCK
  8
0
  2
LCA2
 70
0
 10
0
 20
0
  0
SOLID
  8
1
 62
7 
 10
0
 20
0
 11
-1.65
 21
-0.525
 12
-1.65
 22
0.525
 13
-1.65
 23
0.525
  0
ENDBLK
  8
0
  0
BLOCK
  8
0
  2
LCA3
 70
0
 10
0
 20
0
  0
SOLID
  8
1
 62
7 
 10
0
 20
0
 11
-2.15
 21
-1.15
 12
-2.15
 22
1.15
 13
-2.15
 23
1.15
  0
ENDBLK
  8
0
  0
BLOCK
  8
0
  2
LCA1R
 70
0
 10
0
 20
0
  0
SOLID
  8
1
 62
7 
 10
0
 20
0
 11
1.4
 21
-0.275
 12
1.4
 22
0.275
 13
1.4
 23
0.275
  0
ENDBLK
  8
0
  0
BLOCK
  8
0
  2
LCA2R
 70
0
 10
0
 20
0
  0
SOLID
  8
1
 62
7 
 10
0
 20
0
 11
1.65
 21
-0.525
 12
1.65
 22
0.525
 13
1.65
 23
0.525
  0
ENDBLK
  8
0
  0
BLOCK
  8
0
  2
LCA3R
 70
0
 10
0
 20
0
  0
SOLID
  8
1
 62
7 
 10
0
 20
0
 11
2.15
 21
-1.15
 12
2.15
 22
1.15
 13
2.15
 23
1.15
  0
ENDBLK
  8
0
  0
BLOCK
  8
0
  2
B3960_00997287
 70
0
 10
0
 20
0
  0
POLYLINE
  8
1
 66
1
  0
VERTEX
  8
1
 10
-16.2257277552287
 20
4.10010829925537
  0
VERTEX
  8
1
 10
-6.22572775522868
 20
4.10010829925537
  0
VERTEX
  8
1
 10
-6.22572775522868
 20
-5.89989170074463
  0
VERTEX
  8
1
 10
-16.2257277552287
 20
-5.89989170074463
  0
VERTEX
  8
1
 10
-16.2257277552287
 20
4.10010829925537
  0
SEQEND
  8
1
  0
TEXT
  8
1
 40
0.72
 41
0.75
  1
L
  7
STANDARD
 72
1
 73
2
 10
8.46113217035929
 20
0.700108299255371
 11
8.46113217035929
 21
0.700108299255371
  0
TEXT
  8
1
 40
1.08
 41
0.75
  1
R
  7
STANDARD
 72
1
 73
2
 10
7.75456213315328
 20
0.900108299255371
 11
7.75456213315328
 21
0.900108299255371
  0
TEXT
  8
1
 40
1.44
 41
0.75
  1
+
  7
STANDARD
 73
2
 10
14.1481818262736
 20
3.00232222239176
 11
14.1481818262736
 21
3.00232222239176
  0
TEXT
  8
1
 40
1.44
 41
0.75
  1
-
  7
STANDARD
 73
2
 10
14.0681818262736
 20
-4.81989170074463
 11
14.0681818262736
 21
-4.81989170074463
  0
TEXT
  8
1
 40
1.44
 41
0.75
  1
BU
  7
STANDARD
 73
2
 10
-6.0518181737264
 20
-3.19767777760824
 11
-6.0518181737264
 21
-3.19767777760824
  0
TEXT
  8
1
 40
1.44
 41
0.75
  1
BK
  7
STANDARD
 73
2
 10
-6.0518181737264
 20
0.802322222391762
 11
-6.0518181737264
 21
0.802322222391762
  0
TEXT
  8
1
 40
1.43999977111816
 41
0.75
  1
BN
  7
STANDARD
 73
2
 10
-6.0518181737264
 20
4.80232222239176
 11
-6.0518181737264
 21
4.80232222239176
  0
LINE
  8
1
 10
0.27427224477132
 20
3.10010829925537
 11
10.5242722447713
 21
3.10010829925537
  0
CIRCLE
  8
1
 10
10.7742722447713
 20
3.10010829925537
 40
0.25
  0
LINE
  8
1
 10
11.0242722447713
 20
3.10010829925537
 11
13.2742722447713
 21
3.10010829925537
  0
LINE
  8
1
 10
5.77427224477132
 20
-0.89989170074463
 11
0.27427224477132
 21
-0.89989170074463
  0
LINE
  8
1
 10
10.7742722447713
 20
-0.89989170074463
 11
10.7742722447713
 21
2.85010829925537
  0
LINE
  8
1
 10
9.77427224477132
 20
-0.89989170074463
 11
10.7742722447713
 21
-0.89989170074463
  0
LINE
  8
1
 10
0.27427224477132
 20
-4.89989170074463
 11
13.2742722447713
 21
-4.89989170074463
  0
LINE
  8
1
 10
-13.2257277552287
 20
-5.39989170074463
 11
-13.2257277552287
 21
-4.39989170074463
  0
SOLID
  8
1
 10
-13.2257277552287
 20
-4.39989170074463
 11
-13.2257277552287
 21
-5.39989170074463
 12
-15.2257277552287
 22
-5.39989170074463
 13
-15.2257277552287
 23
-5.39989170074463
  0
SOLID
  8
1
 10
-15.2257277552287
 20
-0.399891700744631
 11
-13.2257277552287
 21
-0.399891700744631
 12
-13.2257277552287
 22
-1.39989170074463
 13
-13.2257277552287
 23
-1.39989170074463
  0
SOLID
  8
1
 10
-14.2257277552287
 20
-4.39989170074463
 11
-13.2257277552287
 21
-4.39989170074463
 12
-15.2257277552287
 22
-5.39989170074463
 13
-15.2257277552287
 23
-5.39989170074463
  0
SOLID
  8
1
 10
-15.2257277552287
 20
-0.399891700744631
 11
-13.2257277552287
 21
-1.39989170074463
 12
-14.2257277552287
 22
-1.39989170074463
 13
-14.2257277552287
 23
-1.39989170074463
  0
SOLID
  8
1
 10
-14.2257277552287
 20
-1.39989170074463
 11
-14.2257277552287
 21
-4.39989170074463
 12
-15.2257277552287
 22
-5.39989170074463
 13
-15.2257277552287
 23
-5.39989170074463
  0
SOLID
  8
1
 10
-15.2257277552287
 20
-5.39989170074463
 11
-15.2257277552287
 21
-0.399891700744631
 12
-14.2257277552287
 22
-1.39989170074463
 13
-14.2257277552287
 23
-1.39989170074463
  0
TEXT
  8
1
 40
1.25999979972839
 41
0.75
  1
NPN
  7
STANDARD
 72
1
 73
2
 10
-11.2257277552287
 20
2.68473511695862
 11
-11.2257277552287
 21
2.68473511695862
  0
LINE
  8
1
 10
-6.22572775522868
 20
-4.89989170074463
 11
-0.625727755228681
 21
-4.89989170074463
  0
LINE
  8
1
 10
-6.22572775522868
 20
-0.89989170074463
 11
-0.625727755228681
 21
-0.89989170074463
  0
LINE
  8
1
 10
-6.22572775522868
 20
3.10010829925537
 11
-0.625727755228681
 21
3.10010829925537
  0
LINE
  8
1
 10
-0.72572775522868
 20
-4.89989170074463
 11
-0.625727755228676
 21
-4.89989170074463
  0
CIRCLE
  8
1
 10
-0.22572775522868
 20
-4.89989170074463
 40
0.4
  0
CIRCLE
  8
1
 10
-0.22572775522868
 20
-0.89989170074463
 40
0.4
  0
CIRCLE
  8
1
 10
-0.22572775522868
 20
3.10010829925537
 40
0.4
  0
LINE
  8
1
 10
-8.22572775522868
 20
-4.89989170074463
 11
-6.22572775522868
 21
-4.89989170074463
  0
LINE
  8
1
 10
-8.22572775522868
 20
-0.89989170074463
 11
-6.22572775522868
 21
-0.89989170074463
  0
LINE
  8
1
 10
-7.22572775522868
 20
-1.39989170074463
 11
-8.22572775522868
 21
-3.89989170074463
  0
LINE
  8
1
 10
-8.22572775522868
 20
-1.89989170074463
 11
-7.22572775522868
 21
-1.89989170074463
  0
LINE
  8
1
 10
-8.22572775522868
 20
-1.89989170074463
 11
-8.22572775522868
 21
-0.89989170074463
  0
LINE
  8
1
 10
-8.22572775522868
 20
-3.89989170074463
 11
-8.22572775522868
 21
-4.89989170074463
  0
POLYLINE
  8
1
 66
1
  0
VERTEX
  8
1
 10
5.77427224477132
 20
-0.399891700744631
  0
VERTEX
  8
1
 10
9.77427224477132
 20
-0.399891700744631
  0
VERTEX
  8
1
 10
9.77427224477132
 20
-1.39989170074463
  0
VERTEX
  8
1
 10
5.77427224477132
 20
-1.39989170074463
  0
VERTEX
  8
1
 10
5.77427224477132
 20
-0.399891700744631
  0
SEQEND
  8
1
  0
LINE
  8
1
  6
DOT
 10
-10.2257277552287
 20
-2.89989170074463
 11
-7.92572775522868
 21
-2.89989170074463
  0
LINE
  8
1
 10
-11.0257277552287
 20
-2.19989170074463
 11
-11.0257277552287
 21
-3.59989170074463
  0
LINE
  8
1
 10
-12.4257277552287
 20
-2.19989170074463
 11
-12.4257277552287
 21
-3.59989170074463
  0
POLYLINE
  8
1
 66
1
  0
VERTEX
  8
1
 10
-11.7257277552287
 20
-1.39989170074463
  0
VERTEX
  8
1
 10
-13.2257277552287
 20
-2.89989170074463
  0
VERTEX
  8
1
 10
-11.7257277552287
 20
-4.39989170074463
  0
VERTEX
  8
1
 10
-10.2257277552287
 20
-2.89989170074463
  0
VERTEX
  8
1
 10
-11.7257277552287
 20
-1.39989170074463
  0
SEQEND
  8
1
  0
ENDBLK
  8
0
  0
ENDSEC
  0
SECTION
  2
ENTITIES
  0
INSERT
  8
1
  2
B3960_00997287
 10
16.2257277552287
 20
6.20009971618652
  0
ENDSEC
  0
EOF
