  0
SECTION
  2
HEADER
  9
$LIMMIN
 10
0
 20
0
  9
$LIMMAX
 10
52.5
 20
74.25
  9
$EXTMIN
 10
0
 20
37.2173498471578
  9
$EXTMAX
 10
0
 20
41.0883675813675
  0
ENDSEC
  0
SECTION
  2
TABLES
  0
TABLE
  2
LTYPE
 70
9
  0
LTYPE
  2
CONTINUOUS
 70
64
  3
Solid line
 72
65
 73
0
 40
0
  0
LTYPE
  2
DASHED
 70
64
  3
__ __ __ __ __ __ __ __ __
 72
65
 73
2
 40
0.75
 49
0.5
 49
-0.25
  0
LTYPE
  2
DOT
 70
64
  3
...........................
 72
65
 73
2
 40
0.25
 49
0
 49
-0.25
  0
LTYPE
  2
DASHDOT
 70
64
  3
__ . __ . __ . __ . __ . __ . 
 72
65
 73
4
 40
1
 49
0.5
 49
-0.25
 49
0
 49
-0.25
  0
ENDTAB
  0
TABLE
  2
LAYER
 70
10
  0
LAYER
  2
1
 70
0
 62
7
  6
CONTINUOUS
  0
LAYER
  2
CONNECTIONS
 70
0
 62
-7
  6
CONTINUOUS
  0
ENDTAB
  0
ENDSEC
  0
SECTION
  2
BLOCKS
  0
BLOCK
  8
0
  2
TRICON
 70
0
 10
0
 20
0
  0
POLYLINE
  8
1
 70
1
 66
1
 40
0.5
 41
0.5
  0
VERTEX
  8
1
 10
-0.25
 20
0
 42
1
  0
VERTEX
  8
1
 10
0.25
 20
0
 42
1
  0
SEQEND
  8
1
  0
ENDBLK
  8
0
  0
BLOCK
  8
0
  2
TRICONSMALL
 70
0
 10
0
 20
0
  0
POLYLINE
  8
1
 70
1
 66
1
 40
0.25
 41
0.25
  0
VERTEX
  8
1
 10
-0.125
 20
0
 42
1
  0
VERTEX
  8
1
 10
0.125
 20
0
 42
1
  0
SEQEND
  8
1
  0
ENDBLK
  8
0
  0
BLOCK
  8
0
  2
TRICONCIRCLE
 70
0
 10
0
 20
0
  0
CIRCLE
  8
1
 10
0
 20
0
 40
0.5
  0
ENDBLK
  8
0
  0
BLOCK
  8
0
  2
LCBP0
 70
0
 10
0
 20
0
  0
LINE
  8
1
 10
0
 20
-0.46875
 11
0
 21
0.46875
  0
ENDBLK
  8
0
  0
BLOCK
  8
0
  2
LCBP1
 70
0
 10
0
 20
0
  0
LINE
  8
1
 10
0
 20
-0.625
 11
0
 21
0.625
  0
ENDBLK
  8
0
  0
BLOCK
  8
0
  2
LCBP2
 70
0
 10
0
 20
0
  0
LINE
  8
1
 10
0
 20
-0.9375
 11
0
 21
0.9375
  0
ENDBLK
  8
0
  0
BLOCK
  8
0
  2
LCA1
 70
0
 10
0
 20
0
  0
SOLID
  8
1
 62
7 
 10
0
 20
0
 11
-1.4
 21
-0.275
 12
-1.4
 22
0.275
 13
-1.4
 23
0.275
  0
ENDBLK
  8
0
  0
BLOCK
  8
0
  2
LCA2
 70
0
 10
0
 20
0
  0
SOLID
  8
1
 62
7 
 10
0
 20
0
 11
-1.65
 21
-0.525
 12
-1.65
 22
0.525
 13
-1.65
 23
0.525
  0
ENDBLK
  8
0
  0
BLOCK
  8
0
  2
LCA3
 70
0
 10
0
 20
0
  0
SOLID
  8
1
 62
7 
 10
0
 20
0
 11
-2.15
 21
-1.15
 12
-2.15
 22
1.15
 13
-2.15
 23
1.15
  0
ENDBLK
  8
0
  0
BLOCK
  8
0
  2
LCA1R
 70
0
 10
0
 20
0
  0
SOLID
  8
1
 62
7 
 10
0
 20
0
 11
1.4
 21
-0.275
 12
1.4
 22
0.275
 13
1.4
 23
0.275
  0
ENDBLK
  8
0
  0
BLOCK
  8
0
  2
LCA2R
 70
0
 10
0
 20
0
  0
SOLID
  8
1
 62
7 
 10
0
 20
0
 11
1.65
 21
-0.525
 12
1.65
 22
0.525
 13
1.65
 23
0.525
  0
ENDBLK
  8
0
  0
BLOCK
  8
0
  2
LCA3R
 70
0
 10
0
 20
0
  0
SOLID
  8
1
 62
7 
 10
0
 20
0
 11
2.15
 21
-1.15
 12
2.15
 22
1.15
 13
2.15
 23
1.15
  0
ENDBLK
  8
0
  0
BLOCK
  8
0
  2
B3059_00995974
 70
0
 10
0
 20
0
  0
POLYLINE
  8
1
 66
1
  0
VERTEX
  8
1
 10
-18.6086749235789
 20
-4.5441837310791
  0
VERTEX
  8
1
 10
-2.6086749235789
 20
-4.5441837310791
  0
VERTEX
  8
1
 10
-2.6086749235789
 20
-20.5441837310791
  0
VERTEX
  8
1
 10
-18.6086749235789
 20
-20.5441837310791
  0
VERTEX
  8
1
 10
-18.6086749235789
 20
-4.5441837310791
  0
SEQEND
  8
1
  0
POLYLINE
  8
1
 66
1
  0
VERTEX
  8
1
 10
-18.6086749235789
 20
19.4558162689209
  0
VERTEX
  8
1
 10
-2.6086749235789
 20
19.4558162689209
  0
VERTEX
  8
1
 10
-2.6086749235789
 20
3.4558162689209
  0
VERTEX
  8
1
 10
-18.6086749235789
 20
3.4558162689209
  0
VERTEX
  8
1
 10
-18.6086749235789
 20
19.4558162689209
  0
SEQEND
  8
1
  0
POLYLINE
  8
1
 66
1
  0
VERTEX
  8
1
 10
-15.6086749235789
 20
-11.3441837310791
  0
VERTEX
  8
1
 10
-3.45867492357886
 20
-11.3441837310791
  0
VERTEX
  8
1
 10
-3.45867492357886
 20
-13.7441837310791
  0
VERTEX
  8
1
 10
-15.6086749235789
 20
-13.7441837310791
  0
VERTEX
  8
1
 10
-15.6086749235789
 20
-11.3441837310791
  0
SEQEND
  8
1
  0
LINE
  8
1
 10
2.7913250764211
 20
5.4558162689209
 11
14.3913250764211
 21
5.4558162689209
  0
LINE
  8
1
 10
2.7913250764211
 20
17.4558162689209
 11
14.3913250764211
 21
17.4558162689209
  0
LINE
  8
1
 10
2.7913250764211
 20
-12.5441837310791
 11
14.3913250764211
 21
-12.5441837310791
  0
LINE
  8
1
 10
2.7913250764211
 20
-18.5441837310791
 11
14.3913250764211
 21
-18.5441837310791
  0
LINE
  8
1
 10
2.7913250764211
 20
-6.5441837310791
 11
14.3913250764211
 21
-6.5441837310791
  0
TEXT
  8
1
 40
1.79999985694885
 41
0.75
  1
NPN
  7
STANDARD
 73
2
 10
9.5913250764211
 20
-9.7441837310791
 11
9.5913250764211
 21
-9.7441837310791
  0
TEXT
  8
1
 40
1.79999985694885
 41
0.75
  1
PNP
  7
STANDARD
 73
2
 10
9.55151114463805
 20
-15.7441837310791
 11
9.55151114463805
 21
-15.7441837310791
  0
TEXT
  8
1
 40
1.2599998998642
 41
0.75
  1
Out
  7
STANDARD
 73
2
 10
-11.6965084552765
 20
-12.5441837310791
 11
-11.6965084552765
 21
-12.5441837310791
  0
TEXT
  8
1
 40
1.79999985694885
 41
0.75
  1
1
  7
STANDARD
 73
2
 10
-2.6086749235789
 20
-5.22526025772095
 11
-2.6086749235789
 21
-5.22526025772095
  0
TEXT
  8
1
 40
1.79999985694885
 41
0.75
  1
4
  7
STANDARD
 73
2
 10
-2.6086749235789
 20
-11.2252602577209
 11
-2.6086749235789
 21
-11.2252602577209
  0
TEXT
  8
1
 40
1.79999985694885
 41
0.75
  1
3
  7
STANDARD
 73
2
 10
-2.6086749235789
 20
-17.2252602577209
 11
-2.6086749235789
 21
-17.2252602577209
  0
TEXT
  8
1
 40
1.79999985694885
 41
0.75
  1
BN
  7
STANDARD
 73
2
 10
2.3913250764211
 20
-5.22526025772095
 11
2.3913250764211
 21
-5.22526025772095
  0
TEXT
  8
1
 40
1.79999985694885
 41
0.75
  1
BK
  7
STANDARD
 73
2
 10
2.3913250764211
 20
-11.2252602577209
 11
2.3913250764211
 21
-11.2252602577209
  0
TEXT
  8
1
 40
1.79999985694885
 41
0.75
  1
BU
  7
STANDARD
 73
2
 10
2.3913250764211
 20
-17.2252602577209
 11
2.3913250764211
 21
-17.2252602577209
  0
TEXT
  8
1
 40
1.79999985694885
 41
0.75
  1
-
  7
STANDARD
 10
16.0443923473358
 20
-19.4441838026047
  0
TEXT
  8
1
 40
1.79999985694885
 41
0.75
  1
+
  7
STANDARD
 10
15.8744162718455
 20
-7.36944406032562
  0
TEXT
  8
1
 40
1.79999985694885
 41
0.75
  1
1
  7
STANDARD
 73
2
 10
-2.6086749235789
 20
18.7747397422791
 11
-2.6086749235789
 21
18.7747397422791
  0
TEXT
  8
1
 40
1.79999985694885
 41
0.75
  1
3
  7
STANDARD
 73
2
 10
-2.6086749235789
 20
6.77473974227905
 11
-2.6086749235789
 21
6.77473974227905
  0
TEXT
  8
1
 40
1.79999985694885
 41
0.75
  1
BU
  7
STANDARD
 73
2
 10
2.3913250764211
 20
6.77473974227905
 11
2.3913250764211
 21
6.77473974227905
  0
TEXT
  8
1
 40
1.79999985694885
 41
0.75
  1
BN
  7
STANDARD
 73
2
 10
2.3913250764211
 20
18.7747397422791
 11
2.3913250764211
 21
18.7747397422791
  0
TEXT
  8
1
 40
1.79999985694885
 41
0.75
  1
-
  7
STANDARD
 10
16.0443923473358
 20
4.55581619739533
  0
TEXT
  8
1
 40
1.79999985694885
 41
0.75
  1
+
  7
STANDARD
 10
15.8744162718455
 20
16.6305559396744
  0
LINE
  8
1
 10
-2.6086749235789
 20
5.4558162689209
 11
0.391325076421102
 21
5.4558162689209
  0
LINE
  8
1
 10
-2.6086749235789
 20
17.4558162689209
 11
0.391325076421102
 21
17.4558162689209
  0
LINE
  8
1
 10
2.3913250764211
 20
17.4558162689209
 11
3.3913250764211
 21
17.4558162689209
  0
ARC
  8
1
 10
1.3913250764211
 20
17.4558162689209
 40
1
 50
270
 51
90
  0
LINE
  8
1
 10
2.3913250764211
 20
5.4558162689209
 11
3.3913250764211
 21
5.4558162689209
  0
ARC
  8
1
 10
1.3913250764211
 20
5.4558162689209
 40
1
 50
270
 51
90
  0
SOLID
  8
1
 10
0.391325076421102
 20
5.7058162689209
 11
1.8913250764211
 21
5.7058162689209
 12
0.391325076421102
 22
5.2058162689209
 13
1.8913250764211
 23
5.2058162689209
  0
SOLID
  8
1
 10
1.8913250764211
 20
5.2058162689209
 11
0.391325076421102
 21
5.2058162689209
 12
0.391325076421102
 22
5.2058162689209
 13
0.391325076421102
 23
5.7058162689209
  0
SOLID
  8
1
 10
0.391325076421102
 20
17.7058162689209
 11
1.8913250764211
 21
17.7058162689209
 12
0.391325076421102
 22
17.2058162689209
 13
1.8913250764211
 23
17.2058162689209
  0
SOLID
  8
1
 10
1.8913250764211
 20
17.2058162689209
 11
0.391325076421102
 21
17.2058162689209
 12
0.391325076421102
 22
17.2058162689209
 13
0.391325076421102
 23
17.7058162689209
  0
LINE
  8
1
 10
-2.6086749235789
 20
-18.5441837310791
 11
0.391325076421102
 21
-18.5441837310791
  0
LINE
  8
1
 10
-2.6086749235789
 20
-12.5441837310791
 11
0.391325076421102
 21
-12.5441837310791
  0
LINE
  8
1
 10
-2.6086749235789
 20
-6.5441837310791
 11
0.391325076421102
 21
-6.5441837310791
  0
LINE
  8
1
 10
2.3913250764211
 20
-12.5441837310791
 11
3.3913250764211
 21
-12.5441837310791
  0
ARC
  8
1
 10
1.3913250764211
 20
-12.5441837310791
 40
1
 50
270
 51
90
  0
SOLID
  8
1
 10
0.391325076421102
 20
-12.2941837310791
 11
1.8913250764211
 21
-12.2941837310791
 12
0.391325076421102
 22
-12.7941837310791
 13
1.8913250764211
 23
-12.7941837310791
  0
SOLID
  8
1
 10
1.8913250764211
 20
-12.7941837310791
 11
0.391325076421102
 21
-12.7941837310791
 12
0.391325076421102
 22
-12.7941837310791
 13
0.391325076421102
 23
-12.2941837310791
  0
LINE
  8
1
 10
2.3913250764211
 20
-6.5441837310791
 11
3.3913250764211
 21
-6.5441837310791
  0
ARC
  8
1
 10
1.3913250764211
 20
-6.5441837310791
 40
1
 50
270
 51
90
  0
LINE
  8
1
 10
2.3913250764211
 20
-18.5441837310791
 11
3.3913250764211
 21
-18.5441837310791
  0
ARC
  8
1
 10
1.3913250764211
 20
-18.5441837310791
 40
1
 50
270
 51
90
  0
SOLID
  8
1
 10
0.391325076421102
 20
-18.2941837310791
 11
1.8913250764211
 21
-18.2941837310791
 12
0.391325076421102
 22
-18.7941837310791
 13
1.8913250764211
 23
-18.7941837310791
  0
SOLID
  8
1
 10
1.8913250764211
 20
-18.7941837310791
 11
0.391325076421102
 21
-18.7941837310791
 12
0.391325076421102
 22
-18.7941837310791
 13
0.391325076421102
 23
-18.2941837310791
  0
SOLID
  8
1
 10
0.391325076421102
 20
-6.2941837310791
 11
1.8913250764211
 21
-6.2941837310791
 12
0.391325076421102
 22
-6.7941837310791
 13
1.8913250764211
 23
-6.7941837310791
  0
SOLID
  8
1
 10
1.8913250764211
 20
-6.7941837310791
 11
0.391325076421102
 21
-6.7941837310791
 12
0.391325076421102
 22
-6.7941837310791
 13
0.391325076421102
 23
-6.2941837310791
  0
LINE
  8
1
 10
8.3913250764211
 20
-17.5441837310791
 11
8.3913250764211
 21
-18.5441837310791
  0
LINE
  8
1
 10
8.3913250764211
 20
-13.5441837310791
 11
8.3913250764211
 21
-12.5441837310791
  0
POLYLINE
  8
1
 66
1
  0
VERTEX
  8
1
 10
7.8913250764211
 20
-13.5441837310791
  0
VERTEX
  8
1
 10
8.8913250764211
 20
-13.5441837310791
  0
VERTEX
  8
1
 10
8.8913250764211
 20
-17.5441837310791
  0
VERTEX
  8
1
 10
7.8913250764211
 20
-17.5441837310791
  0
VERTEX
  8
1
 10
7.8913250764211
 20
-13.5441837310791
  0
SEQEND
  8
1
  0
LINE
  8
1
 10
8.3913250764211
 20
-11.5441837310791
 11
8.3913250764211
 21
-12.5441837310791
  0
LINE
  8
1
 10
8.3913250764211
 20
-7.5441837310791
 11
8.3913250764211
 21
-6.5441837310791
  0
POLYLINE
  8
1
 66
1
  0
VERTEX
  8
1
 10
7.8913250764211
 20
-7.5441837310791
  0
VERTEX
  8
1
 10
8.8913250764211
 20
-7.5441837310791
  0
VERTEX
  8
1
 10
8.8913250764211
 20
-11.5441837310791
  0
VERTEX
  8
1
 10
7.8913250764211
 20
-11.5441837310791
  0
VERTEX
  8
1
 10
7.8913250764211
 20
-7.5441837310791
  0
SEQEND
  8
1
  0
LINE
  8
1
 10
-15.6086749235789
 20
-7.82637364657433
 11
-15.6086749235789
 21
-6.5441837310791
  0
POLYLINE
  8
1
 66
1
  0
VERTEX
  8
1
 10
-15.6086749235789
 20
-9.5441837310791
  0
VERTEX
  8
1
 10
-16.6086749235789
 20
-7.8441837310791
  0
VERTEX
  8
1
 10
-14.6086749235789
 20
-7.8441837310791
  0
VERTEX
  8
1
 10
-15.6086749235789
 20
-9.5441837310791
  0
SEQEND
  8
1
  0
LINE
  8
1
 10
-16.6086749235789
 20
-9.5441837310791
 11
-14.6086749235789
 21
-9.5441837310791
  0
LINE
  8
1
 10
-15.6086749235789
 20
-9.5441837310791
 11
-15.6086749235789
 21
-10.5441837310791
  0
LINE
  8
1
 10
-15.6086749235789
 20
16.1736263534257
 11
-15.6086749235789
 21
17.4558162689209
  0
POLYLINE
  8
1
 66
1
  0
VERTEX
  8
1
 10
-15.6086749235789
 20
14.4558162689209
  0
VERTEX
  8
1
 10
-16.6086749235789
 20
16.1558162689209
  0
VERTEX
  8
1
 10
-14.6086749235789
 20
16.1558162689209
  0
VERTEX
  8
1
 10
-15.6086749235789
 20
14.4558162689209
  0
SEQEND
  8
1
  0
LINE
  8
1
 10
-16.6086749235789
 20
14.4558162689209
 11
-14.6086749235789
 21
14.4558162689209
  0
LINE
  8
1
 10
-15.6086749235789
 20
14.4558162689209
 11
-15.6086749235789
 21
13.4558162689209
  0
LINE
  8
1
 10
-16.1086749235789
 20
17.4558162689209
 11
-16.8157817047654
 21
18.1629230501074
  0
SOLID
  8
1
 10
-17.1086749235789
 20
18.4558162689209
 11
-16.472278820511
 21
18.1022628783276
 12
-17.1086749235789
 22
18.4558162689209
 13
-16.7551215329856
 23
17.819420165853
  0
LINE
  8
1
 10
-16.8157817047654
 20
16.7487094877343
 11
-17.522888485952
 21
17.4558162689209
  0
SOLID
  8
1
 10
-17.8157817047654
 20
17.7487094877343
 11
-17.1793856016975
 21
17.3951560971411
 12
-17.8157817047654
 22
17.7487094877343
 13
-17.4622283141722
 23
17.1123133846665
  0
SOLID
  8
1
 10
-17.1086749235789
 20
-7.0441837310791
 11
-17.4622283141722
 21
-6.4077876280112
 12
-17.1086749235789
 22
-7.0441837310791
 13
-17.7450710266468
 23
-6.69063034048583
  0
LINE
  8
1
 10
-18.1086749235789
 20
-6.0441837310791
 11
-17.4015681423924
 21
-6.75129051226565
  0
SOLID
  8
1
 10
-16.0986497310786
 20
-7.05425955125645
 11
-16.4522031216719
 21
-6.41786344818855
 12
-16.0986497310786
 22
-7.05425955125645
 13
-16.7350458341465
 23
-6.70070616066318
  0
LINE
  8
1
 10
-17.0986497310786
 20
-6.05425955125645
 11
-16.391542949892
 21
-6.761366332443
  0
ENDBLK
  8
0
  0
ENDSEC
  0
SECTION
  2
ENTITIES
  0
INSERT
  8
1
  2
B3059_00995974
 10
18.6086749235789
 20
20.5441837310791
  0
ENDSEC
  0
EOF
