  0
SECTION
  2
HEADER
  9
$LIMMIN
 10
0
 20
0
  9
$LIMMAX
 10
52.5
 20
74.25
  9
$EXTMIN
 10
0
 20
176
  9
$EXTMAX
 10
0
 20
63.6459150314331
  0
ENDSEC
  0
SECTION
  2
TABLES
  0
TABLE
  2
LTYPE
 70
9
  0
LTYPE
  2
CONTINUOUS
 70
64
  3
Solid line
 72
65
 73
0
 40
0
  0
LTYPE
  2
DASHED
 70
64
  3
__ __ __ __ __ __ __ __ __
 72
65
 73
2
 40
0.75
 49
0.5
 49
-0.25
  0
LTYPE
  2
DOT
 70
64
  3
...........................
 72
65
 73
2
 40
0.25
 49
0
 49
-0.25
  0
LTYPE
  2
DASHDOT
 70
64
  3
__ . __ . __ . __ . __ . __ . 
 72
65
 73
4
 40
1
 49
0.5
 49
-0.25
 49
0
 49
-0.25
  0
ENDTAB
  0
TABLE
  2
LAYER
 70
10
  0
LAYER
  2
1
 70
0
 62
7
  6
CONTINUOUS
  0
LAYER
  2
CONNECTIONS
 70
0
 62
-7
  6
CONTINUOUS
  0
ENDTAB
  0
ENDSEC
  0
SECTION
  2
BLOCKS
  0
BLOCK
  8
0
  2
TRICON
 70
0
 10
0
 20
0
  0
POLYLINE
  8
1
 70
1
 66
1
 40
0.5
 41
0.5
  0
VERTEX
  8
1
 10
-0.25
 20
0
 42
1
  0
VERTEX
  8
1
 10
0.25
 20
0
 42
1
  0
SEQEND
  8
1
  0
ENDBLK
  8
0
  0
BLOCK
  8
0
  2
TRICONSMALL
 70
0
 10
0
 20
0
  0
POLYLINE
  8
1
 70
1
 66
1
 40
0.25
 41
0.25
  0
VERTEX
  8
1
 10
-0.125
 20
0
 42
1
  0
VERTEX
  8
1
 10
0.125
 20
0
 42
1
  0
SEQEND
  8
1
  0
ENDBLK
  8
0
  0
BLOCK
  8
0
  2
TRICONCIRCLE
 70
0
 10
0
 20
0
  0
CIRCLE
  8
1
 10
0
 20
0
 40
0.5
  0
ENDBLK
  8
0
  0
BLOCK
  8
0
  2
LCBP0
 70
0
 10
0
 20
0
  0
LINE
  8
1
 10
0
 20
-0.46875
 11
0
 21
0.46875
  0
ENDBLK
  8
0
  0
BLOCK
  8
0
  2
LCBP1
 70
0
 10
0
 20
0
  0
LINE
  8
1
 10
0
 20
-0.625
 11
0
 21
0.625
  0
ENDBLK
  8
0
  0
BLOCK
  8
0
  2
LCBP2
 70
0
 10
0
 20
0
  0
LINE
  8
1
 10
0
 20
-0.9375
 11
0
 21
0.9375
  0
ENDBLK
  8
0
  0
BLOCK
  8
0
  2
LCA1
 70
0
 10
0
 20
0
  0
SOLID
  8
1
 62
7 
 10
0
 20
0
 11
-1.4
 21
-0.275
 12
-1.4
 22
0.275
 13
-1.4
 23
0.275
  0
ENDBLK
  8
0
  0
BLOCK
  8
0
  2
LCA2
 70
0
 10
0
 20
0
  0
SOLID
  8
1
 62
7 
 10
0
 20
0
 11
-1.65
 21
-0.525
 12
-1.65
 22
0.525
 13
-1.65
 23
0.525
  0
ENDBLK
  8
0
  0
BLOCK
  8
0
  2
LCA3
 70
0
 10
0
 20
0
  0
SOLID
  8
1
 62
7 
 10
0
 20
0
 11
-2.15
 21
-1.15
 12
-2.15
 22
1.15
 13
-2.15
 23
1.15
  0
ENDBLK
  8
0
  0
BLOCK
  8
0
  2
LCA1R
 70
0
 10
0
 20
0
  0
SOLID
  8
1
 62
7 
 10
0
 20
0
 11
1.4
 21
-0.275
 12
1.4
 22
0.275
 13
1.4
 23
0.275
  0
ENDBLK
  8
0
  0
BLOCK
  8
0
  2
LCA2R
 70
0
 10
0
 20
0
  0
SOLID
  8
1
 62
7 
 10
0
 20
0
 11
1.65
 21
-0.525
 12
1.65
 22
0.525
 13
1.65
 23
0.525
  0
ENDBLK
  8
0
  0
BLOCK
  8
0
  2
LCA3R
 70
0
 10
0
 20
0
  0
SOLID
  8
1
 62
7 
 10
0
 20
0
 11
2.15
 21
-1.15
 12
2.15
 22
1.15
 13
2.15
 23
1.15
  0
ENDBLK
  8
0
  0
BLOCK
  8
0
  2
B3683_00995929
 70
0
 10
0
 20
0
  0
LINE
  8
1
 10
-88
 20
5.6275626818339
 11
-78
 21
17.6275626818339
  0
LINE
  8
1
 10
88
 20
5.6275626818339
 11
78
 21
17.6275626818339
  0
LINE
  8
1
 10
88
 20
-16.3724373181661
 11
88
 21
5.6275626818339
  0
LINE
  8
1
 10
-88
 20
-16.3724373181661
 11
-88
 21
5.6275626818339
  0
LINE
  8
1
 10
-78
 20
17.6275626818339
 11
78
 21
17.6275626818339
  0
LINE
  8
1
 10
-88
 20
-16.3724373181661
 11
88
 21
-16.3724373181661
  0
SOLID
  8
1
 10
67
 20
9.6275626818339
 11
73
 21
9.6275626818339
 12
67
 22
7.6275626818339
 13
73
 23
7.6275626818339
  0
SOLID
  8
1
 10
73
 20
7.6275626818339
 11
67
 21
7.6275626818339
 12
67
 22
7.6275626818339
 13
67
 23
9.6275626818339
  0
SOLID
  8
1
 10
57
 20
9.6275626818339
 11
63
 21
9.6275626818339
 12
57
 22
7.6275626818339
 13
63
 23
7.6275626818339
  0
SOLID
  8
1
 10
63
 20
7.6275626818339
 11
57
 21
7.6275626818339
 12
57
 22
7.6275626818339
 13
57
 23
9.6275626818339
  0
SOLID
  8
1
 10
47
 20
9.6275626818339
 11
53
 21
9.6275626818339
 12
47
 22
7.6275626818339
 13
53
 23
7.6275626818339
  0
SOLID
  8
1
 10
53
 20
7.6275626818339
 11
47
 21
7.6275626818339
 12
47
 22
7.6275626818339
 13
47
 23
9.6275626818339
  0
SOLID
  8
1
 10
37
 20
9.6275626818339
 11
43
 21
9.6275626818339
 12
37
 22
7.6275626818339
 13
43
 23
7.6275626818339
  0
SOLID
  8
1
 10
43
 20
7.6275626818339
 11
37
 21
7.6275626818339
 12
37
 22
7.6275626818339
 13
37
 23
9.6275626818339
  0
SOLID
  8
1
 10
27
 20
9.6275626818339
 11
33
 21
9.6275626818339
 12
27
 22
7.6275626818339
 13
33
 23
7.6275626818339
  0
SOLID
  8
1
 10
33
 20
7.6275626818339
 11
27
 21
7.6275626818339
 12
27
 22
7.6275626818339
 13
27
 23
9.6275626818339
  0
SOLID
  8
1
 10
17
 20
9.6275626818339
 11
23
 21
9.6275626818339
 12
17
 22
7.6275626818339
 13
23
 23
7.6275626818339
  0
SOLID
  8
1
 10
23
 20
7.6275626818339
 11
17
 21
7.6275626818339
 12
17
 22
7.6275626818339
 13
17
 23
9.6275626818339
  0
SOLID
  8
1
 10
7
 20
9.6275626818339
 11
13
 21
9.6275626818339
 12
7
 22
7.6275626818339
 13
13
 23
7.6275626818339
  0
SOLID
  8
1
 10
13
 20
7.6275626818339
 11
7
 21
7.6275626818339
 12
7
 22
7.6275626818339
 13
7
 23
9.6275626818339
  0
SOLID
  8
1
 10
-3
 20
9.6275626818339
 11
3
 21
9.6275626818339
 12
-3
 22
7.6275626818339
 13
3
 23
7.6275626818339
  0
SOLID
  8
1
 10
3
 20
7.6275626818339
 11
-3
 21
7.6275626818339
 12
-3
 22
7.6275626818339
 13
-3
 23
9.6275626818339
  0
SOLID
  8
1
 10
-13
 20
9.6275626818339
 11
-7
 21
9.6275626818339
 12
-13
 22
7.6275626818339
 13
-7
 23
7.6275626818339
  0
SOLID
  8
1
 10
-7
 20
7.6275626818339
 11
-13
 21
7.6275626818339
 12
-13
 22
7.6275626818339
 13
-13
 23
9.6275626818339
  0
SOLID
  8
1
 10
-23
 20
9.6275626818339
 11
-17
 21
9.6275626818339
 12
-23
 22
7.6275626818339
 13
-17
 23
7.6275626818339
  0
SOLID
  8
1
 10
-17
 20
7.6275626818339
 11
-23
 21
7.6275626818339
 12
-23
 22
7.6275626818339
 13
-23
 23
9.6275626818339
  0
SOLID
  8
1
 10
-33
 20
9.6275626818339
 11
-27
 21
9.6275626818339
 12
-33
 22
7.6275626818339
 13
-27
 23
7.6275626818339
  0
SOLID
  8
1
 10
-27
 20
7.6275626818339
 11
-33
 21
7.6275626818339
 12
-33
 22
7.6275626818339
 13
-33
 23
9.6275626818339
  0
SOLID
  8
1
 10
-43
 20
9.6275626818339
 11
-37
 21
9.6275626818339
 12
-43
 22
7.6275626818339
 13
-37
 23
7.6275626818339
  0
SOLID
  8
1
 10
-37
 20
7.6275626818339
 11
-43
 21
7.6275626818339
 12
-43
 22
7.6275626818339
 13
-43
 23
9.6275626818339
  0
SOLID
  8
1
 10
-53
 20
9.6275626818339
 11
-47
 21
9.6275626818339
 12
-53
 22
7.6275626818339
 13
-47
 23
7.6275626818339
  0
SOLID
  8
1
 10
-47
 20
7.6275626818339
 11
-53
 21
7.6275626818339
 12
-53
 22
7.6275626818339
 13
-53
 23
9.6275626818339
  0
SOLID
  8
1
 10
-63
 20
9.6275626818339
 11
-57
 21
9.6275626818339
 12
-63
 22
7.6275626818339
 13
-57
 23
7.6275626818339
  0
SOLID
  8
1
 10
-57
 20
7.6275626818339
 11
-63
 21
7.6275626818339
 12
-63
 22
7.6275626818339
 13
-63
 23
9.6275626818339
  0
SOLID
  8
1
 10
-73
 20
9.6275626818339
 11
-67
 21
9.6275626818339
 12
-73
 22
7.6275626818339
 13
-67
 23
7.6275626818339
  0
SOLID
  8
1
 10
-67
 20
7.6275626818339
 11
-73
 21
7.6275626818339
 12
-73
 22
7.6275626818339
 13
-73
 23
9.6275626818339
  0
SOLID
  8
1
 10
72
 20
-8.3724373181661
 11
78
 21
-8.3724373181661
 12
72
 22
-10.3724373181661
 13
78
 23
-10.3724373181661
  0
SOLID
  8
1
 10
78
 20
-10.3724373181661
 11
72
 21
-10.3724373181661
 12
72
 22
-10.3724373181661
 13
72
 23
-8.3724373181661
  0
SOLID
  8
1
 10
62
 20
-8.3724373181661
 11
68
 21
-8.3724373181661
 12
62
 22
-10.3724373181661
 13
68
 23
-10.3724373181661
  0
SOLID
  8
1
 10
68
 20
-10.3724373181661
 11
62
 21
-10.3724373181661
 12
62
 22
-10.3724373181661
 13
62
 23
-8.3724373181661
  0
SOLID
  8
1
 10
52
 20
-8.3724373181661
 11
58
 21
-8.3724373181661
 12
52
 22
-10.3724373181661
 13
58
 23
-10.3724373181661
  0
SOLID
  8
1
 10
58
 20
-10.3724373181661
 11
52
 21
-10.3724373181661
 12
52
 22
-10.3724373181661
 13
52
 23
-8.3724373181661
  0
SOLID
  8
1
 10
42
 20
-8.3724373181661
 11
48
 21
-8.3724373181661
 12
42
 22
-10.3724373181661
 13
48
 23
-10.3724373181661
  0
SOLID
  8
1
 10
48
 20
-10.3724373181661
 11
42
 21
-10.3724373181661
 12
42
 22
-10.3724373181661
 13
42
 23
-8.3724373181661
  0
SOLID
  8
1
 10
32
 20
-8.3724373181661
 11
38
 21
-8.3724373181661
 12
32
 22
-10.3724373181661
 13
38
 23
-10.3724373181661
  0
SOLID
  8
1
 10
38
 20
-10.3724373181661
 11
32
 21
-10.3724373181661
 12
32
 22
-10.3724373181661
 13
32
 23
-8.3724373181661
  0
SOLID
  8
1
 10
22
 20
-8.3724373181661
 11
28
 21
-8.3724373181661
 12
22
 22
-10.3724373181661
 13
28
 23
-10.3724373181661
  0
SOLID
  8
1
 10
28
 20
-10.3724373181661
 11
22
 21
-10.3724373181661
 12
22
 22
-10.3724373181661
 13
22
 23
-8.3724373181661
  0
SOLID
  8
1
 10
12
 20
-8.3724373181661
 11
18
 21
-8.3724373181661
 12
12
 22
-10.3724373181661
 13
18
 23
-10.3724373181661
  0
SOLID
  8
1
 10
18
 20
-10.3724373181661
 11
12
 21
-10.3724373181661
 12
12
 22
-10.3724373181661
 13
12
 23
-8.3724373181661
  0
SOLID
  8
1
 10
2
 20
-8.3724373181661
 11
8
 21
-8.3724373181661
 12
2
 22
-10.3724373181661
 13
8
 23
-10.3724373181661
  0
SOLID
  8
1
 10
8
 20
-10.3724373181661
 11
2
 21
-10.3724373181661
 12
2
 22
-10.3724373181661
 13
2
 23
-8.3724373181661
  0
SOLID
  8
1
 10
-8
 20
-8.3724373181661
 11
-2
 21
-8.3724373181661
 12
-8
 22
-10.3724373181661
 13
-2
 23
-10.3724373181661
  0
SOLID
  8
1
 10
-2
 20
-10.3724373181661
 11
-8
 21
-10.3724373181661
 12
-8
 22
-10.3724373181661
 13
-8
 23
-8.3724373181661
  0
SOLID
  8
1
 10
-18
 20
-8.3724373181661
 11
-12
 21
-8.3724373181661
 12
-18
 22
-10.3724373181661
 13
-12
 23
-10.3724373181661
  0
SOLID
  8
1
 10
-12
 20
-10.3724373181661
 11
-18
 21
-10.3724373181661
 12
-18
 22
-10.3724373181661
 13
-18
 23
-8.3724373181661
  0
SOLID
  8
1
 10
-28
 20
-8.3724373181661
 11
-22
 21
-8.3724373181661
 12
-28
 22
-10.3724373181661
 13
-22
 23
-10.3724373181661
  0
SOLID
  8
1
 10
-22
 20
-10.3724373181661
 11
-28
 21
-10.3724373181661
 12
-28
 22
-10.3724373181661
 13
-28
 23
-8.3724373181661
  0
SOLID
  8
1
 10
-38
 20
-8.3724373181661
 11
-32
 21
-8.3724373181661
 12
-38
 22
-10.3724373181661
 13
-32
 23
-10.3724373181661
  0
SOLID
  8
1
 10
-32
 20
-10.3724373181661
 11
-38
 21
-10.3724373181661
 12
-38
 22
-10.3724373181661
 13
-38
 23
-8.3724373181661
  0
SOLID
  8
1
 10
-48
 20
-8.3724373181661
 11
-42
 21
-8.3724373181661
 12
-48
 22
-10.3724373181661
 13
-42
 23
-10.3724373181661
  0
SOLID
  8
1
 10
-42
 20
-10.3724373181661
 11
-48
 21
-10.3724373181661
 12
-48
 22
-10.3724373181661
 13
-48
 23
-8.3724373181661
  0
SOLID
  8
1
 10
-58
 20
-8.3724373181661
 11
-52
 21
-8.3724373181661
 12
-58
 22
-10.3724373181661
 13
-52
 23
-10.3724373181661
  0
SOLID
  8
1
 10
-52
 20
-10.3724373181661
 11
-58
 21
-10.3724373181661
 12
-58
 22
-10.3724373181661
 13
-58
 23
-8.3724373181661
  0
SOLID
  8
1
 10
-68
 20
-8.3724373181661
 11
-62
 21
-8.3724373181661
 12
-68
 22
-10.3724373181661
 13
-62
 23
-10.3724373181661
  0
SOLID
  8
1
 10
-62
 20
-10.3724373181661
 11
-68
 21
-10.3724373181661
 12
-68
 22
-10.3724373181661
 13
-68
 23
-8.3724373181661
  0
SOLID
  8
1
 10
-78
 20
-8.3724373181661
 11
-72
 21
-8.3724373181661
 12
-78
 22
-10.3724373181661
 13
-72
 23
-10.3724373181661
  0
SOLID
  8
1
 10
-72
 20
-10.3724373181661
 11
-78
 21
-10.3724373181661
 12
-78
 22
-10.3724373181661
 13
-78
 23
-8.3724373181661
  0
LINE
  8
1
 10
-76
 20
5.6275626818339
 11
76
 21
5.6275626818339
  0
LINE
  8
1
 10
-76
 20
1.6275626818339
 11
-76
 21
5.6275626818339
  0
LINE
  8
1
 10
76
 20
1.6275626818339
 11
76
 21
5.6275626818339
  0
LINE
  8
1
 10
82
 20
1.6275626818339
 11
76
 21
1.6275626818339
  0
LINE
  8
1
 10
-82
 20
1.6275626818339
 11
-76
 21
1.6275626818339
  0
LINE
  8
1
 10
-82
 20
-6.3724373181661
 11
-82
 21
1.6275626818339
  0
LINE
  8
1
 10
82
 20
-6.3724373181661
 11
82
 21
1.6275626818339
  0
LINE
  8
1
 10
-82
 20
-6.3724373181661
 11
82
 21
-6.3724373181661
  0
TEXT
  8
1
 40
6.07521286010742
 41
0.75
  1
16
  7
STANDARD
 72
1
 73
2
 10
74.932596206665
 20
-26
 11
74.932596206665
 21
-26
  0
TEXT
  8
1
 40
6.07521286010742
 41
0.75
  1
1
  7
STANDARD
 72
1
 73
2
 10
-75.0679098765055
 20
-26
 11
-75.0679098765055
 21
-26
  0
TEXT
  8
1
 40
6.07521286010742
 41
0.75
  1
17
  7
STANDARD
 72
1
 73
2
 10
69.932596206665
 20
26
 11
69.932596206665
 21
26
  0
TEXT
  8
1
 40
6.07521286010742
 41
0.75
  1
31
  7
STANDARD
 72
1
 73
2
 10
-70.0679098765055
 20
26
 11
-70.0679098765055
 21
26
  0
ENDBLK
  8
0
  0
ENDSEC
  0
SECTION
  2
ENTITIES
  0
INSERT
  8
1
  2
B3683_00995929
 10
88
 20
31.8229575157165
  0
ENDSEC
  0
EOF
