  0
SECTION
  2
HEADER
  9
$LIMMIN
 10
0
 20
0
  9
$LIMMAX
 10
52.5
 20
74.25
  9
$EXTMIN
 10
0
 20
82
  9
$EXTMAX
 10
0
 20
29.3722326755524
  0
ENDSEC
  0
SECTION
  2
TABLES
  0
TABLE
  2
LTYPE
 70
9
  0
LTYPE
  2
CONTINUOUS
 70
64
  3
Solid line
 72
65
 73
0
 40
0
  0
LTYPE
  2
DASHED
 70
64
  3
__ __ __ __ __ __ __ __ __
 72
65
 73
2
 40
0.75
 49
0.5
 49
-0.25
  0
LTYPE
  2
DOT
 70
64
  3
...........................
 72
65
 73
2
 40
0.25
 49
0
 49
-0.25
  0
LTYPE
  2
DASHDOT
 70
64
  3
__ . __ . __ . __ . __ . __ . 
 72
65
 73
4
 40
1
 49
0.5
 49
-0.25
 49
0
 49
-0.25
  0
ENDTAB
  0
TABLE
  2
LAYER
 70
10
  0
LAYER
  2
1
 70
0
 62
7
  6
CONTINUOUS
  0
LAYER
  2
CONNECTIONS
 70
0
 62
-7
  6
CONTINUOUS
  0
ENDTAB
  0
ENDSEC
  0
SECTION
  2
BLOCKS
  0
BLOCK
  8
0
  2
TRICON
 70
0
 10
0
 20
0
  0
POLYLINE
  8
1
 70
1
 66
1
 40
0.5
 41
0.5
  0
VERTEX
  8
1
 10
-0.25
 20
0
 42
1
  0
VERTEX
  8
1
 10
0.25
 20
0
 42
1
  0
SEQEND
  8
1
  0
ENDBLK
  8
0
  0
BLOCK
  8
0
  2
TRICONSMALL
 70
0
 10
0
 20
0
  0
POLYLINE
  8
1
 70
1
 66
1
 40
0.25
 41
0.25
  0
VERTEX
  8
1
 10
-0.125
 20
0
 42
1
  0
VERTEX
  8
1
 10
0.125
 20
0
 42
1
  0
SEQEND
  8
1
  0
ENDBLK
  8
0
  0
BLOCK
  8
0
  2
TRICONCIRCLE
 70
0
 10
0
 20
0
  0
CIRCLE
  8
1
 10
0
 20
0
 40
0.5
  0
ENDBLK
  8
0
  0
BLOCK
  8
0
  2
LCBP0
 70
0
 10
0
 20
0
  0
LINE
  8
1
 10
0
 20
-0.46875
 11
0
 21
0.46875
  0
ENDBLK
  8
0
  0
BLOCK
  8
0
  2
LCBP1
 70
0
 10
0
 20
0
  0
LINE
  8
1
 10
0
 20
-0.625
 11
0
 21
0.625
  0
ENDBLK
  8
0
  0
BLOCK
  8
0
  2
LCBP2
 70
0
 10
0
 20
0
  0
LINE
  8
1
 10
0
 20
-0.9375
 11
0
 21
0.9375
  0
ENDBLK
  8
0
  0
BLOCK
  8
0
  2
LCA1
 70
0
 10
0
 20
0
  0
SOLID
  8
1
 62
7 
 10
0
 20
0
 11
-1.4
 21
-0.275
 12
-1.4
 22
0.275
 13
-1.4
 23
0.275
  0
ENDBLK
  8
0
  0
BLOCK
  8
0
  2
LCA2
 70
0
 10
0
 20
0
  0
SOLID
  8
1
 62
7 
 10
0
 20
0
 11
-1.65
 21
-0.525
 12
-1.65
 22
0.525
 13
-1.65
 23
0.525
  0
ENDBLK
  8
0
  0
BLOCK
  8
0
  2
LCA3
 70
0
 10
0
 20
0
  0
SOLID
  8
1
 62
7 
 10
0
 20
0
 11
-2.15
 21
-1.15
 12
-2.15
 22
1.15
 13
-2.15
 23
1.15
  0
ENDBLK
  8
0
  0
BLOCK
  8
0
  2
LCA1R
 70
0
 10
0
 20
0
  0
SOLID
  8
1
 62
7 
 10
0
 20
0
 11
1.4
 21
-0.275
 12
1.4
 22
0.275
 13
1.4
 23
0.275
  0
ENDBLK
  8
0
  0
BLOCK
  8
0
  2
LCA2R
 70
0
 10
0
 20
0
  0
SOLID
  8
1
 62
7 
 10
0
 20
0
 11
1.65
 21
-0.525
 12
1.65
 22
0.525
 13
1.65
 23
0.525
  0
ENDBLK
  8
0
  0
BLOCK
  8
0
  2
LCA3R
 70
0
 10
0
 20
0
  0
SOLID
  8
1
 62
7 
 10
0
 20
0
 11
2.15
 21
-1.15
 12
2.15
 22
1.15
 13
2.15
 23
1.15
  0
ENDBLK
  8
0
  0
BLOCK
  8
0
  2
B83205_00995865
 70
0
 10
0
 20
0
  0
POLYLINE
  8
1
 66
1
  0
VERTEX
  8
1
 10
-41
 20
10.6861162980398
  0
VERTEX
  8
1
 10
41
 20
10.6861162980398
  0
VERTEX
  8
1
 10
41
 20
-9.31388370196025
  0
VERTEX
  8
1
 10
-41
 20
-9.31388370196025
  0
VERTEX
  8
1
 10
-41
 20
10.6861162980398
  0
SEQEND
  8
1
  0
LINE
  8
1
  6
DOT
 10
-13
 20
-5.31388370196025
 11
25
 21
-5.31388370196025
  0
LINE
  8
1
  6
DOT
 10
25
 20
-3.31388370196025
 11
25
 21
-5.31388370196025
  0
LINE
  8
1
  6
DOT
 10
-15
 20
-3.31388370196025
 11
-13
 21
-5.31388370196025
  0
LINE
  8
1
 10
9
 20
-3.31388370196025
 11
9
 21
-9.31388370196025
  0
LINE
  8
1
 10
-31
 20
-3.31388370196025
 11
-31
 21
-9.31388370196025
  0
LINE
  8
1
 10
25
 20
10.6861162980398
 11
25
 21
4.68611629803975
  0
LINE
  8
1
 10
-15
 20
10.6861162980398
 11
-15
 21
4.68611629803975
  0
LINE
  8
1
 10
-11
 20
-3.31388370196025
 11
-11
 21
-9.31388370196025
  0
LINE
  8
1
 10
29
 20
-3.31388370196025
 11
29
 21
-9.31388370196025
  0
LINE
  8
1
 10
-15
 20
-3.31388370196025
 11
-15
 21
-9.31388370196025
  0
TEXT
  8
1
 40
2.475
 41
0.75
  1
(12)
  7
STANDARD
 73
2
 10
8.76765683492025
 20
-12.3138837019602
 11
8.76765683492025
 21
-12.3138837019602
  0
TEXT
  8
1
 40
2.4
 41
0.75
  1
10(12)
  7
STANDARD
 72
2
 73
2
 10
8.88066606521607
 20
7.78611629803975
 11
8.88066606521607
 21
7.78611629803975
  0
TEXT
  8
1
 40
2.4
 41
0.75
  1
14
  7
STANDARD
 72
2
 73
2
 10
-31.2193339347839
 20
7.78611629803975
 11
-31.2193339347839
 21
7.78611629803975
  0
TEXT
  8
1
 40
2.47464580535889
 41
0.75
  1
12
  7
STANDARD
 72
2
 73
2
 10
9
 20
-12.2861162980397
 11
9
 21
-12.2861162980397
  0
LINE
  8
1
 10
9
 20
-9.31388370196025
 11
9
 21
-13.3138837019602
  0
TEXT
  8
1
 40
2.4
 41
0.75
  1
14
  7
STANDARD
 72
2
 73
2
 10
-31
 20
-12.3416511058807
 11
-31
 21
-12.3416511058807
  0
LINE
  8
1
 10
-31
 20
-9.31388370196025
 11
-31
 21
-13.3138837019602
  0
TEXT
  8
1
 40
2.4
 41
0.75
  1
5
  7
STANDARD
 73
2
 10
-10.5744934344337
 20
-12.367157671447
 11
-10.5744934344337
 21
-12.367157671447
  0
LINE
  8
1
 10
-11
 20
-9.31388370196025
 11
-11
 21
-13.3138837019602
  0
TEXT
  8
1
 40
2.4
 41
0.75
  1
4
  7
STANDARD
 72
2
 73
2
 10
-15
 20
13.3138837019602
 11
-15
 21
13.3138837019602
  0
LINE
  8
1
 10
-15
 20
10.6861162980398
 11
-15
 21
14.6861162980398
  0
TEXT
  8
1
 40
2.4
 41
0.75
  1
3
  7
STANDARD
 73
2
 10
29.5575684852817
 20
-12.4224616107868
 11
29.5575684852817
 21
-12.4224616107868
  0
LINE
  8
1
 10
29
 20
-9.31388370196025
 11
29
 21
-13.3138837019602
  0
TEXT
  8
1
 40
2.4
 41
0.75
  1
2
  7
STANDARD
 72
2
 73
2
 10
25
 20
13.1138837019602
 11
25
 21
13.1138837019602
  0
LINE
  8
1
 10
25
 20
10.6861162980398
 11
25
 21
14.6861162980398
  0
TEXT
  8
1
 40
2.4
 41
0.75
  1
1
  7
STANDARD
 72
2
 73
2
 10
-11.6903211994569
 20
-12.2820563583337
 11
-11.6903211994569
 21
-12.2820563583337
  0
LINE
  8
1
 10
-15
 20
-9.31388370196025
 11
-15
 21
-13.3138837019602
  0
LINE
  8
1
 10
5
 20
-3.31388370196025
 11
7
 21
0.686116298039754
  0
POLYLINE
  8
1
 66
1
  0
VERTEX
  8
1
 10
3
 20
0.686116298039753
  0
VERTEX
  8
1
 10
9
 20
0.686116298039753
  0
VERTEX
  8
1
 10
9
 20
-3.31388370196025
  0
VERTEX
  8
1
 10
3
 20
-3.31388370196025
  0
VERTEX
  8
1
 10
3
 20
0.686116298039753
  0
SEQEND
  8
1
  0
LINE
  8
1
 10
-35
 20
-3.31388370196025
 11
-33
 21
0.686116298039754
  0
POLYLINE
  8
1
 66
1
  0
VERTEX
  8
1
 10
-37
 20
0.686116298039753
  0
VERTEX
  8
1
 10
-31
 20
0.686116298039753
  0
VERTEX
  8
1
 10
-31
 20
-3.31388370196025
  0
VERTEX
  8
1
 10
-37
 20
-3.31388370196025
  0
VERTEX
  8
1
 10
-37
 20
0.686116298039753
  0
SEQEND
  8
1
  0
POLYLINE
  8
1
 66
1
  0
VERTEX
  8
1
 10
36
 20
-1.31388370196025
  0
VERTEX
  8
1
 10
35.5833333333333
 20
-3.31388370196025
  0
VERTEX
  8
1
 10
34.75
 20
0.686116298039753
  0
VERTEX
  8
1
 10
33.9166666666668
 20
-3.31388370196025
  0
VERTEX
  8
1
 10
33.0833333333332
 20
0.686116298039753
  0
VERTEX
  8
1
 10
32.25
 20
-3.31388370196025
  0
VERTEX
  8
1
 10
31.4166666666668
 20
0.686116298039753
  0
VERTEX
  8
1
 10
31
 20
-1.31388370196025
  0
SEQEND
  8
1
  0
POLYLINE
  8
1
 66
1
  0
VERTEX
  8
1
 10
-4
 20
-1.31388370196025
  0
VERTEX
  8
1
 10
-4.41666666666672
 20
-3.31388370196025
  0
VERTEX
  8
1
 10
-5.25
 20
0.686116298039753
  0
VERTEX
  8
1
 10
-6.08333333333325
 20
-3.31388370196025
  0
VERTEX
  8
1
 10
-6.91666666666676
 20
0.686116298039753
  0
VERTEX
  8
1
 10
-7.75
 20
-3.31388370196025
  0
VERTEX
  8
1
 10
-8.58333333333325
 20
0.686116298039753
  0
VERTEX
  8
1
 10
-9
 20
-1.31388370196025
  0
SEQEND
  8
1
  0
LINE
  8
1
 10
11.9999500595413
 20
-1.31388370196025
 11
8.99995005954131
 21
-3.31388370196025
  0
LINE
  8
1
 10
8.99995005954131
 20
0.686116298039754
 11
11.9999500595413
 21
-1.31388370196025
  0
POLYLINE
  8
1
 66
1
  0
VERTEX
  8
1
 10
8.99995005954131
 20
0.686116298039753
  0
VERTEX
  8
1
 10
14.9999500595413
 20
0.686116298039753
  0
VERTEX
  8
1
 10
14.9999500595413
 20
-3.31388370196025
  0
VERTEX
  8
1
 10
8.99995005954131
 20
-3.31388370196025
  0
VERTEX
  8
1
 10
8.99995005954131
 20
0.686116298039753
  0
SEQEND
  8
1
  0
LINE
  8
1
 10
-28
 20
-1.31388370196025
 11
-31
 21
-3.31388370196025
  0
LINE
  8
1
 10
-31
 20
0.686116298039754
 11
-28
 21
-1.31388370196025
  0
POLYLINE
  8
1
 66
1
  0
VERTEX
  8
1
 10
-31
 20
0.686116298039753
  0
VERTEX
  8
1
 10
-25
 20
0.686116298039753
  0
VERTEX
  8
1
 10
-25
 20
-3.31388370196025
  0
VERTEX
  8
1
 10
-31
 20
-3.31388370196025
  0
VERTEX
  8
1
 10
-31
 20
0.686116298039753
  0
SEQEND
  8
1
  0
LINE
  8
1
 10
5
 20
4.18611629803975
 11
9
 21
4.18611629803975
  0
LINE
  8
1
 10
5
 20
4.68611629803975
 11
5
 21
1.68611629803975
  0
LINE
  8
1
 10
5
 20
2.18611629803975
 11
9
 21
2.18611629803975
  0
LINE
  8
1
 10
9
 20
0.686116298039754
 11
9
 21
4.68611629803975
  0
LINE
  8
1
 10
-35
 20
4.18611629803975
 11
-31
 21
4.18611629803975
  0
LINE
  8
1
 10
-35
 20
4.68611629803975
 11
-35
 21
1.68611629803975
  0
LINE
  8
1
 10
-35
 20
2.18611629803975
 11
-31
 21
2.18611629803975
  0
LINE
  8
1
 10
-31
 20
0.686116298039754
 11
-31
 21
4.68611629803975
  0
LINE
  8
1
 10
17
 20
-3.31388370196025
 11
17
 21
-1.31388370196025
  0
INSERT
  8
1
  2
LCBP1
 10
17
 20
-1.31388370196025
 50
90
  0
POLYLINE
  8
1
 66
1
  0
VERTEX
  8
1
 10
15
 20
4.68611629803975
  0
VERTEX
  8
1
 10
23
 20
4.68611629803975
  0
VERTEX
  8
1
 10
23
 20
-3.31388370196025
  0
VERTEX
  8
1
 10
15
 20
-3.31388370196025
  0
VERTEX
  8
1
 10
15
 20
4.68611629803975
  0
SEQEND
  8
1
  0
LINE
  8
1
 10
17
 20
4.68611629803975
 11
21
 21
-3.31388370196025
  0
INSERT
  8
1
  2
LCA1
 10
21
 20
-3.31388370196025
 50
-63.434948822922
  0
LINE
  8
1
 10
-15
 20
-3.31388370196025
 11
-15
 21
-1.31388370196025
  0
INSERT
  8
1
  2
LCBP1
 10
-15
 20
-1.31388370196025
 50
90
  0
POLYLINE
  8
1
 66
1
  0
VERTEX
  8
1
 10
-17
 20
4.68611629803975
  0
VERTEX
  8
1
 10
-9
 20
4.68611629803975
  0
VERTEX
  8
1
 10
-9
 20
-3.31388370196025
  0
VERTEX
  8
1
 10
-17
 20
-3.31388370196025
  0
VERTEX
  8
1
 10
-17
 20
4.68611629803975
  0
SEQEND
  8
1
  0
LINE
  8
1
 10
-15
 20
4.68611629803975
 11
-11
 21
-3.31388370196025
  0
INSERT
  8
1
  2
LCA1
 10
-11
 20
-3.31388370196025
 50
-63.434948822922
  0
POLYLINE
  8
1
 66
1
  0
VERTEX
  8
1
 10
23
 20
4.68611629803975
  0
VERTEX
  8
1
 10
31
 20
4.68611629803975
  0
VERTEX
  8
1
 10
31
 20
-3.31388370196025
  0
VERTEX
  8
1
 10
23
 20
-3.31388370196025
  0
VERTEX
  8
1
 10
23
 20
4.68611629803975
  0
SEQEND
  8
1
  0
LINE
  8
1
 10
29
 20
-3.31388370196025
 11
29
 21
-1.31388370196025
  0
INSERT
  8
1
  2
LCBP1
 10
29
 20
-1.31388370196025
 50
90
  0
LINE
  8
1
 10
25
 20
-3.31388370196025
 11
25
 21
4.68611629803975
  0
INSERT
  8
1
  2
LCA1
 10
25
 20
4.68611629803975
 50
90
  0
POLYLINE
  8
1
 66
1
  0
VERTEX
  8
1
 10
-25
 20
4.68611629803975
  0
VERTEX
  8
1
 10
-17
 20
4.68611629803975
  0
VERTEX
  8
1
 10
-17
 20
-3.31388370196025
  0
VERTEX
  8
1
 10
-25
 20
-3.31388370196025
  0
VERTEX
  8
1
 10
-25
 20
4.68611629803975
  0
SEQEND
  8
1
  0
LINE
  8
1
 10
-19
 20
-3.31388370196025
 11
-19
 21
-1.31388370196025
  0
INSERT
  8
1
  2
LCBP1
 10
-19
 20
-1.31388370196025
 50
90
  0
LINE
  8
1
 10
-23
 20
-3.31388370196025
 11
-23
 21
4.68611629803975
  0
INSERT
  8
1
  2
LCA1
 10
-23
 20
4.68611629803975
 50
90
  0
CIRCLE
  8
CONNECTIONS
 10
9
 20
-13.3138837019602
 40
0
  0
CIRCLE
  8
CONNECTIONS
 10
-31
 20
-13.3138837019602
 40
0
  0
CIRCLE
  8
CONNECTIONS
 10
-11
 20
-13.3138837019602
 40
0
  0
CIRCLE
  8
CONNECTIONS
 10
-15
 20
14.6861162980398
 40
0
  0
CIRCLE
  8
CONNECTIONS
 10
29
 20
-13.3138837019602
 40
0
  0
CIRCLE
  8
CONNECTIONS
 10
25
 20
14.6861162980398
 40
0
  0
CIRCLE
  8
CONNECTIONS
 10
-15
 20
-13.3138837019602
 40
0
  0
CIRCLE
  8
CONNECTIONS
 10
3
 20
-1.31388370196025
 40
0
  0
CIRCLE
  8
CONNECTIONS
 10
-37
 20
-1.31388370196025
 40
0
  0
ENDBLK
  8
0
  0
ENDSEC
  0
SECTION
  2
ENTITIES
  0
INSERT
  8
1
  2
B83205_00995865
 10
41
 20
14.6861163775126
  0
ENDSEC
  0
EOF
