  0
SECTION
  2
HEADER
  9
$LIMMIN
 10
0
 20
0
  9
$LIMMAX
 10
52.5
 20
74.25
  9
$EXTMIN
 10
0
 20
76
  9
$EXTMAX
 10
0
 20
26
  0
ENDSEC
  0
SECTION
  2
TABLES
  0
TABLE
  2
LTYPE
 70
9
  0
LTYPE
  2
CONTINUOUS
 70
64
  3
Solid line
 72
65
 73
0
 40
0
  0
LTYPE
  2
DASHED
 70
64
  3
__ __ __ __ __ __ __ __ __
 72
65
 73
2
 40
0.75
 49
0.5
 49
-0.25
  0
LTYPE
  2
DOT
 70
64
  3
...........................
 72
65
 73
2
 40
0.25
 49
0
 49
-0.25
  0
LTYPE
  2
DASHDOT
 70
64
  3
__ . __ . __ . __ . __ . __ . 
 72
65
 73
4
 40
1
 49
0.5
 49
-0.25
 49
0
 49
-0.25
  0
ENDTAB
  0
TABLE
  2
LAYER
 70
10
  0
LAYER
  2
1
 70
0
 62
7
  6
CONTINUOUS
  0
LAYER
  2
CONNECTIONS
 70
0
 62
-7
  6
CONTINUOUS
  0
ENDTAB
  0
ENDSEC
  0
SECTION
  2
BLOCKS
  0
BLOCK
  8
0
  2
TRICON
 70
0
 10
0
 20
0
  0
POLYLINE
  8
1
 70
1
 66
1
 40
0.5
 41
0.5
  0
VERTEX
  8
1
 10
-0.25
 20
0
 42
1
  0
VERTEX
  8
1
 10
0.25
 20
0
 42
1
  0
SEQEND
  8
1
  0
ENDBLK
  8
0
  0
BLOCK
  8
0
  2
TRICONSMALL
 70
0
 10
0
 20
0
  0
POLYLINE
  8
1
 70
1
 66
1
 40
0.25
 41
0.25
  0
VERTEX
  8
1
 10
-0.125
 20
0
 42
1
  0
VERTEX
  8
1
 10
0.125
 20
0
 42
1
  0
SEQEND
  8
1
  0
ENDBLK
  8
0
  0
BLOCK
  8
0
  2
TRICONCIRCLE
 70
0
 10
0
 20
0
  0
CIRCLE
  8
1
 10
0
 20
0
 40
0.5
  0
ENDBLK
  8
0
  0
BLOCK
  8
0
  2
LCBP0
 70
0
 10
0
 20
0
  0
LINE
  8
1
 10
0
 20
-0.46875
 11
0
 21
0.46875
  0
ENDBLK
  8
0
  0
BLOCK
  8
0
  2
LCBP1
 70
0
 10
0
 20
0
  0
LINE
  8
1
 10
0
 20
-0.625
 11
0
 21
0.625
  0
ENDBLK
  8
0
  0
BLOCK
  8
0
  2
LCBP2
 70
0
 10
0
 20
0
  0
LINE
  8
1
 10
0
 20
-0.9375
 11
0
 21
0.9375
  0
ENDBLK
  8
0
  0
BLOCK
  8
0
  2
LCA1
 70
0
 10
0
 20
0
  0
SOLID
  8
1
 62
7 
 10
0
 20
0
 11
-1.4
 21
-0.275
 12
-1.4
 22
0.275
 13
-1.4
 23
0.275
  0
ENDBLK
  8
0
  0
BLOCK
  8
0
  2
LCA2
 70
0
 10
0
 20
0
  0
SOLID
  8
1
 62
7 
 10
0
 20
0
 11
-1.65
 21
-0.525
 12
-1.65
 22
0.525
 13
-1.65
 23
0.525
  0
ENDBLK
  8
0
  0
BLOCK
  8
0
  2
LCA3
 70
0
 10
0
 20
0
  0
SOLID
  8
1
 62
7 
 10
0
 20
0
 11
-2.15
 21
-1.15
 12
-2.15
 22
1.15
 13
-2.15
 23
1.15
  0
ENDBLK
  8
0
  0
BLOCK
  8
0
  2
LCA1R
 70
0
 10
0
 20
0
  0
SOLID
  8
1
 62
7 
 10
0
 20
0
 11
1.4
 21
-0.275
 12
1.4
 22
0.275
 13
1.4
 23
0.275
  0
ENDBLK
  8
0
  0
BLOCK
  8
0
  2
LCA2R
 70
0
 10
0
 20
0
  0
SOLID
  8
1
 62
7 
 10
0
 20
0
 11
1.65
 21
-0.525
 12
1.65
 22
0.525
 13
1.65
 23
0.525
  0
ENDBLK
  8
0
  0
BLOCK
  8
0
  2
LCA3R
 70
0
 10
0
 20
0
  0
SOLID
  8
1
 62
7 
 10
0
 20
0
 11
2.15
 21
-1.15
 12
2.15
 22
1.15
 13
2.15
 23
1.15
  0
ENDBLK
  8
0
  0
BLOCK
  8
0
  2
B123900_00995853
 70
0
 10
0
 20
0
  0
POLYLINE
  8
1
 66
1
  0
VERTEX
  8
1
 10
-38
 20
9
  0
VERTEX
  8
1
 10
38
 20
9
  0
VERTEX
  8
1
 10
38
 20
-9
  0
VERTEX
  8
1
 10
-38
 20
-9
  0
VERTEX
  8
1
 10
-38
 20
9
  0
SEQEND
  8
1
  0
LINE
  8
1
 10
2
 20
-1
 11
2
 21
-9
  0
LINE
  8
1
 10
22
 20
9
 11
22
 21
5
  0
LINE
  8
1
 10
-14
 20
9
 11
-14
 21
5
  0
LINE
  8
1
 10
26
 20
-3
 11
26
 21
-9
  0
LINE
  8
1
 10
-10
 20
-3
 11
-10
 21
-9
  0
LINE
  8
1
 10
-14
 20
-3
 11
-14
 21
-9
  0
LINE
  8
1
 10
-34
 20
-1
 11
-34
 21
-9
  0
POLYLINE
  8
1
  6
DOT
 66
1
  0
VERTEX
  8
1
 10
-14
 20
-3
  0
VERTEX
  8
1
 10
-12
 20
-5
  0
VERTEX
  8
1
 10
22
 20
-5
  0
VERTEX
  8
1
 10
22
 20
-3
  0
SEQEND
  8
1
  0
TEXT
  8
1
 40
2.47464580535889
 41
0.75
  1
14
  7
STANDARD
 73
2
 10
-34.0892234802246
 20
-12.5
 11
-34.0892234802246
 21
-12.5
  0
TEXT
  8
1
 40
2.47464580535889
 41
0.75
  1
1
  7
STANDARD
 72
2
 73
2
 10
-14
 20
-12.5
 11
-14
 21
-12.5
  0
TEXT
  8
1
 40
2.47464580535889
 41
0.75
  1
10(12)
  7
STANDARD
 73
2
 10
2.01077651977538
 20
-12.5
 11
2.01077651977538
 21
-12.5
  0
TEXT
  8
1
 40
2.47464580535889
 41
0.75
  1
2
  7
STANDARD
 72
2
 73
2
 10
21.4
 20
11.8
 11
21.4
 21
11.8
  0
TEXT
  8
1
 40
2.47464580535889
 41
0.75
  1
4
  7
STANDARD
 72
2
 73
2
 10
-14.6
 20
11.8
 11
-14.6
 21
11.8
  0
TEXT
  8
1
 40
2.47464580535889
 41
0.75
  1
5
  7
STANDARD
 73
2
 10
-9.36522102355957
 20
-12.5
 11
-9.36522102355957
 21
-12.5
  0
TEXT
  8
1
 40
2.47464580535889
 41
0.75
  1
3
  7
STANDARD
 72
2
 73
2
 10
25.6
 20
-12.5
 11
25.6
 21
-12.5
  0
LINE
  8
1
 10
26
 20
-9
 11
26
 21
-13
  0
LINE
  8
1
 10
2
 20
-9
 11
2
 21
-13
  0
LINE
  8
1
 10
-10
 20
-9
 11
-10
 21
-13
  0
LINE
  8
1
 10
-14
 20
-9
 11
-14
 21
-13
  0
LINE
  8
1
 10
-34
 20
-9
 11
-34
 21
-13
  0
LINE
  8
1
 10
-14
 20
13
 11
-14
 21
9
  0
LINE
  8
1
 10
22
 20
13
 11
22
 21
9
  0
POLYLINE
  8
1
 66
1
  0
VERTEX
  8
1
 10
33
 20
-1
  0
VERTEX
  8
1
 10
32.5833333333333
 20
-3
  0
VERTEX
  8
1
 10
31.75
 20
1
  0
VERTEX
  8
1
 10
30.9166666666668
 20
-3
  0
VERTEX
  8
1
 10
30.0833333333332
 20
1
  0
VERTEX
  8
1
 10
29.25
 20
-3
  0
VERTEX
  8
1
 10
28.4166666666668
 20
1
  0
VERTEX
  8
1
 10
28
 20
-1
  0
SEQEND
  8
1
  0
POLYLINE
  8
1
 66
1
  0
VERTEX
  8
1
 10
-3
 20
-1
  0
VERTEX
  8
1
 10
-3.41666666666672
 20
-3
  0
VERTEX
  8
1
 10
-4.25
 20
1
  0
VERTEX
  8
1
 10
-5.08333333333325
 20
-3
  0
VERTEX
  8
1
 10
-5.91666666666675
 20
1
  0
VERTEX
  8
1
 10
-6.75
 20
-3
  0
VERTEX
  8
1
 10
-7.58333333333325
 20
1
  0
VERTEX
  8
1
 10
-8
 20
-1
  0
SEQEND
  8
1
  0
LINE
  8
1
 10
8.00000000000694
 20
-1
 11
12
 21
-1
  0
LINE
  8
1
 10
4.53591140703788
 20
-0.99999248164742
 11
2
 21
-0.99999248164742
  0
LINE
  8
1
 10
4.53591140703788
 20
1.00000751835258
 11
4.53591140703788
 21
-2.99999248164742
  0
LINE
  8
1
 10
4.53591140703788
 20
1.00000751835258
 11
8.00001302217564
 21
-0.99999248164742
  0
LINE
  8
1
 10
4.53591140703788
 20
-2.99999248164742
 11
8.00001302217564
 21
-0.99999248164742
  0
LINE
  8
1
 10
-27.9999999999931
 20
-1
 11
-24
 21
-1
  0
LINE
  8
1
 10
-31.4640885929621
 20
-0.99999248164742
 11
-34
 21
-0.99999248164742
  0
LINE
  8
1
 10
-31.4640885929621
 20
1.00000751835258
 11
-31.4640885929621
 21
-2.99999248164742
  0
LINE
  8
1
 10
-31.4640885929621
 20
1.00000751835258
 11
-27.9999869778244
 21
-0.99999248164742
  0
LINE
  8
1
 10
-31.4640885929621
 20
-2.99999248164742
 11
-27.9999869778244
 21
-0.99999248164742
  0
LINE
  8
1
 10
14
 20
-3
 11
14
 21
-1
  0
INSERT
  8
1
  2
LCBP1
 10
14
 20
-1
 50
90
  0
POLYLINE
  8
1
 66
1
  0
VERTEX
  8
1
 10
12
 20
5
  0
VERTEX
  8
1
 10
20
 20
5
  0
VERTEX
  8
1
 10
20
 20
-3
  0
VERTEX
  8
1
 10
12
 20
-3
  0
VERTEX
  8
1
 10
12
 20
5
  0
SEQEND
  8
1
  0
LINE
  8
1
 10
14
 20
5
 11
18
 21
-3
  0
INSERT
  8
1
  2
LCA1
 10
18
 20
-3
 50
-63.434948822922
  0
LINE
  8
1
 10
-14
 20
-3
 11
-14
 21
-1
  0
INSERT
  8
1
  2
LCBP1
 10
-14
 20
-1
 50
90
  0
POLYLINE
  8
1
 66
1
  0
VERTEX
  8
1
 10
-16
 20
5
  0
VERTEX
  8
1
 10
-8
 20
5
  0
VERTEX
  8
1
 10
-8
 20
-3
  0
VERTEX
  8
1
 10
-16
 20
-3
  0
VERTEX
  8
1
 10
-16
 20
5
  0
SEQEND
  8
1
  0
LINE
  8
1
 10
-14
 20
5
 11
-10
 21
-3
  0
INSERT
  8
1
  2
LCA1
 10
-10
 20
-3
 50
-63.434948822922
  0
POLYLINE
  8
1
 66
1
  0
VERTEX
  8
1
 10
20
 20
5
  0
VERTEX
  8
1
 10
28
 20
5
  0
VERTEX
  8
1
 10
28
 20
-3
  0
VERTEX
  8
1
 10
20
 20
-3
  0
VERTEX
  8
1
 10
20
 20
5
  0
SEQEND
  8
1
  0
LINE
  8
1
 10
26
 20
-3
 11
26
 21
-1
  0
INSERT
  8
1
  2
LCBP1
 10
26
 20
-1
 50
90
  0
LINE
  8
1
 10
22
 20
-3
 11
22
 21
5
  0
INSERT
  8
1
  2
LCA1
 10
22
 20
5
 50
90
  0
POLYLINE
  8
1
 66
1
  0
VERTEX
  8
1
 10
-24
 20
5
  0
VERTEX
  8
1
 10
-16
 20
5
  0
VERTEX
  8
1
 10
-16
 20
-3
  0
VERTEX
  8
1
 10
-24
 20
-3
  0
VERTEX
  8
1
 10
-24
 20
5
  0
SEQEND
  8
1
  0
LINE
  8
1
 10
-18
 20
-3
 11
-18
 21
-1
  0
INSERT
  8
1
  2
LCBP1
 10
-18
 20
-1
 50
90
  0
LINE
  8
1
 10
-22
 20
-3
 11
-22
 21
5
  0
INSERT
  8
1
  2
LCA1
 10
-22
 20
5
 50
90
  0
CIRCLE
  8
CONNECTIONS
 10
-34
 20
-13
 40
0
  0
CIRCLE
  8
CONNECTIONS
 10
-14
 20
-13
 40
0
  0
CIRCLE
  8
CONNECTIONS
 10
-10
 20
-13
 40
0
  0
CIRCLE
  8
CONNECTIONS
 10
2
 20
-13
 40
0
  0
CIRCLE
  8
CONNECTIONS
 10
26
 20
-13
 40
0
  0
CIRCLE
  8
CONNECTIONS
 10
22
 20
13
 40
0
  0
CIRCLE
  8
CONNECTIONS
 10
-14
 20
13
 40
0
  0
ENDBLK
  8
0
  0
ENDSEC
  0
SECTION
  2
ENTITIES
  0
INSERT
  8
1
  2
B123900_00995853
 10
38
 20
13
  0
ENDSEC
  0
EOF
