  0
SECTION
  2
HEADER
  9
$LIMMIN
 10
0
 20
0
  9
$LIMMAX
 10
52.5
 20
74.25
  9
$EXTMIN
 10
0
 20
52.9658673604329
  9
$EXTMAX
 10
0
 20
38
  0
ENDSEC
  0
SECTION
  2
TABLES
  0
TABLE
  2
LTYPE
 70
9
  0
LTYPE
  2
CONTINUOUS
 70
64
  3
Solid line
 72
65
 73
0
 40
0
  0
LTYPE
  2
DASHED
 70
64
  3
__ __ __ __ __ __ __ __ __
 72
65
 73
2
 40
0.75
 49
0.5
 49
-0.25
  0
LTYPE
  2
DOT
 70
64
  3
...........................
 72
65
 73
2
 40
0.25
 49
0
 49
-0.25
  0
LTYPE
  2
DASHDOT
 70
64
  3
__ . __ . __ . __ . __ . __ . 
 72
65
 73
4
 40
1
 49
0.5
 49
-0.25
 49
0
 49
-0.25
  0
ENDTAB
  0
TABLE
  2
LAYER
 70
10
  0
LAYER
  2
1
 70
0
 62
7
  6
CONTINUOUS
  0
LAYER
  2
CONNECTIONS
 70
0
 62
-7
  6
CONTINUOUS
  0
ENDTAB
  0
ENDSEC
  0
SECTION
  2
BLOCKS
  0
BLOCK
  8
0
  2
TRICON
 70
0
 10
0
 20
0
  0
POLYLINE
  8
1
 70
1
 66
1
 40
0.5
 41
0.5
  0
VERTEX
  8
1
 10
-0.25
 20
0
 42
1
  0
VERTEX
  8
1
 10
0.25
 20
0
 42
1
  0
SEQEND
  8
1
  0
ENDBLK
  8
0
  0
BLOCK
  8
0
  2
TRICONSMALL
 70
0
 10
0
 20
0
  0
POLYLINE
  8
1
 70
1
 66
1
 40
0.25
 41
0.25
  0
VERTEX
  8
1
 10
-0.125
 20
0
 42
1
  0
VERTEX
  8
1
 10
0.125
 20
0
 42
1
  0
SEQEND
  8
1
  0
ENDBLK
  8
0
  0
BLOCK
  8
0
  2
TRICONCIRCLE
 70
0
 10
0
 20
0
  0
CIRCLE
  8
1
 10
0
 20
0
 40
0.5
  0
ENDBLK
  8
0
  0
BLOCK
  8
0
  2
LCBP0
 70
0
 10
0
 20
0
  0
LINE
  8
1
 10
0
 20
-0.46875
 11
0
 21
0.46875
  0
ENDBLK
  8
0
  0
BLOCK
  8
0
  2
LCBP1
 70
0
 10
0
 20
0
  0
LINE
  8
1
 10
0
 20
-0.625
 11
0
 21
0.625
  0
ENDBLK
  8
0
  0
BLOCK
  8
0
  2
LCBP2
 70
0
 10
0
 20
0
  0
LINE
  8
1
 10
0
 20
-0.9375
 11
0
 21
0.9375
  0
ENDBLK
  8
0
  0
BLOCK
  8
0
  2
LCA1
 70
0
 10
0
 20
0
  0
SOLID
  8
1
 62
7 
 10
0
 20
0
 11
-1.4
 21
-0.275
 12
-1.4
 22
0.275
 13
-1.4
 23
0.275
  0
ENDBLK
  8
0
  0
BLOCK
  8
0
  2
LCA2
 70
0
 10
0
 20
0
  0
SOLID
  8
1
 62
7 
 10
0
 20
0
 11
-1.65
 21
-0.525
 12
-1.65
 22
0.525
 13
-1.65
 23
0.525
  0
ENDBLK
  8
0
  0
BLOCK
  8
0
  2
LCA3
 70
0
 10
0
 20
0
  0
SOLID
  8
1
 62
7 
 10
0
 20
0
 11
-2.15
 21
-1.15
 12
-2.15
 22
1.15
 13
-2.15
 23
1.15
  0
ENDBLK
  8
0
  0
BLOCK
  8
0
  2
LCA1R
 70
0
 10
0
 20
0
  0
SOLID
  8
1
 62
7 
 10
0
 20
0
 11
1.4
 21
-0.275
 12
1.4
 22
0.275
 13
1.4
 23
0.275
  0
ENDBLK
  8
0
  0
BLOCK
  8
0
  2
LCA2R
 70
0
 10
0
 20
0
  0
SOLID
  8
1
 62
7 
 10
0
 20
0
 11
1.65
 21
-0.525
 12
1.65
 22
0.525
 13
1.65
 23
0.525
  0
ENDBLK
  8
0
  0
BLOCK
  8
0
  2
LCA3R
 70
0
 10
0
 20
0
  0
SOLID
  8
1
 62
7 
 10
0
 20
0
 11
2.15
 21
-1.15
 12
2.15
 22
1.15
 13
2.15
 23
1.15
  0
ENDBLK
  8
0
  0
BLOCK
  8
0
  2
B3593_00995790
 70
0
 10
0
 20
0
  0
LINE
  8
1
 10
-12.4541012446086
 20
-19
 11
11.5458987553914
 21
-19
  0
LINE
  8
1
 10
-16.4541012446086
 20
-15
 11
-16.4541012446086
 21
9
  0
ARC
  8
1
 10
-12.4541012446086
 20
-15
 40
4
 50
180
 51
270
  0
ARC
  8
1
 10
11.5458987553914
 20
-15
 40
4
 50
270
 51
0
  0
ARC
  8
1
 10
11.5458987553914
 20
9
 40
4
 50
0
 51
90
  0
POLYLINE
  8
1
 66
1
  0
VERTEX
  8
1
 10
15.5458987553914
 20
9
  0
VERTEX
  8
1
 10
15.5458987553914
 20
-15
  0
SEQEND
  8
1
  0
ARC
  8
1
 10
-12.4541012446086
 20
9
 40
4
 50
90
 51
180
  0
POLYLINE
  8
1
 66
1
  0
VERTEX
  8
1
 10
-12.4541012446086
 20
13
  0
VERTEX
  8
1
 10
11.5458987553914
 20
13
  0
SEQEND
  8
1
  0
LINE
  8
1
 10
5.54589875539144
 20
16
 11
5.54589875539144
 21
13
  0
LINE
  8
1
 10
-6.45410124460856
 20
16
 11
-6.45410124460856
 21
13
  0
LINE
  8
1
 10
-10.4541012446086
 20
16
 11
9.54589875539144
 21
16
  0
POLYLINE
  8
1
 66
1
  0
VERTEX
  8
1
 10
-10.4541012446086
 20
19
  0
VERTEX
  8
1
 10
9.54589875539144
 20
19
  0
VERTEX
  8
1
 10
9.54589875539144
 20
13
  0
VERTEX
  8
1
 10
-10.4541012446086
 20
13
  0
VERTEX
  8
1
 10
-10.4541012446086
 20
19
  0
SEQEND
  8
1
  0
TEXT
  8
1
 40
7.2
 41
0.75
  1
4
  7
STANDARD
 73
2
 10
16.5458987553914
 20
-10.7014904022217
 11
16.5458987553914
 21
-10.7014904022217
  0
TEXT
  8
1
 40
7.2
 41
0.75
  1
3
  7
STANDARD
 72
2
 73
2
 10
-16.6570100784302
 20
-10.9004968007406
 11
-16.6570100784302
 21
-10.9004968007406
  0
TEXT
  8
1
 40
7.2
 41
0.75
  1
1
  7
STANDARD
 72
2
 73
2
 10
-16.6570100784302
 20
3.90049680074056
 11
-16.6570100784302
 21
3.90049680074056
  0
TEXT
  8
1
 40
7.2
 41
0.75
  1
2
  7
STANDARD
 73
2
 10
16.5458987553914
 20
4.09950319925944
 11
16.5458987553914
 21
4.09950319925944
  0
CIRCLE
  8
1
 10
-7.45410124460856
 20
-10
 40
3
  0
CIRCLE
  8
1
 10
-7.45410124460856
 20
4
 40
3
  0
CIRCLE
  8
1
 10
6.54589875539144
 20
4
 40
3
  0
CIRCLE
  8
1
 10
6.54589875539144
 20
-10
 40
3
  0
ARC
  8
1
 10
6.54589875539144
 20
-10
 40
6
 50
201.370622269343
 51
0
  0
POLYLINE
  8
1
 66
1
  0
VERTEX
  8
1
 10
0.545898755391439
 20
10
  0
VERTEX
  8
1
 10
12.5458987553914
 20
10
  0
VERTEX
  8
1
 10
12.5458987553914
 20
-2
  0
VERTEX
  8
1
 10
0.545898755391439
 20
-2
  0
VERTEX
  8
1
 10
0.545898755391439
 20
10
  0
SEQEND
  8
1
  0
POLYLINE
  8
1
 66
1
  0
VERTEX
  8
1
 10
-13.4541012446086
 20
10
  0
VERTEX
  8
1
 10
-1.45410124460856
 20
10
  0
VERTEX
  8
1
 10
-1.45410124460856
 20
-2
  0
VERTEX
  8
1
 10
-13.4541012446086
 20
-2
  0
VERTEX
  8
1
 10
-13.4541012446086
 20
10
  0
SEQEND
  8
1
  0
ARC
  8
1
 10
-7.45410124460856
 20
-10
 40
6
 50
180
 51
270
  0
POLYLINE
  8
1
 66
1
  0
VERTEX
  8
1
 10
-13.4541012446086
 20
-10
  0
VERTEX
  8
1
 10
-13.4541012446086
 20
-4
  0
SEQEND
  8
1
  0
ARC
  8
1
 10
-7.45410124460856
 20
-10
 40
6
 50
225
 51
1.4210854715202E-14
  0
POLYLINE
  8
1
 66
1
  0
VERTEX
  8
1
 10
-13.4541012446086
 20
-4
  0
VERTEX
  8
1
 10
-1.45410124460856
 20
-4
  0
VERTEX
  8
1
 10
-1.45410124460856
 20
-10
  0
SEQEND
  8
1
  0
ARC
  8
1
 10
6.54589875539144
 20
-10
 40
6
 50
180
 51
270
  0
POLYLINE
  8
1
 66
1
  0
VERTEX
  8
1
 10
0.545898755391439
 20
-10
  0
VERTEX
  8
1
 10
0.545898755391439
 20
-4
  0
SEQEND
  8
1
  0
POLYLINE
  8
1
 66
1
  0
VERTEX
  8
1
 10
0.545898755391439
 20
-4
  0
VERTEX
  8
1
 10
12.5458987553914
 20
-4
  0
VERTEX
  8
1
 10
12.5458987553914
 20
-10
  0
SEQEND
  8
1
  0
ENDBLK
  8
0
  0
ENDSEC
  0
SECTION
  2
ENTITIES
  0
INSERT
  8
1
  2
B3593_00995790
 10
26.4829339981079
 20
19
  0
ENDSEC
  0
EOF
