  0
SECTION
  2
HEADER
  9
$LIMMIN
 10
0
 20
0
  9
$LIMMAX
 10
52.5
 20
74.25
  9
$EXTMIN
 10
0
 20
36
  9
$EXTMAX
 10
0
 20
17
  0
ENDSEC
  0
SECTION
  2
TABLES
  0
TABLE
  2
LTYPE
 70
9
  0
LTYPE
  2
CONTINUOUS
 70
64
  3
Solid line
 72
65
 73
0
 40
0
  0
LTYPE
  2
DASHED
 70
64
  3
__ __ __ __ __ __ __ __ __
 72
65
 73
2
 40
0.75
 49
0.5
 49
-0.25
  0
LTYPE
  2
DOT
 70
64
  3
...........................
 72
65
 73
2
 40
0.25
 49
0
 49
-0.25
  0
LTYPE
  2
DASHDOT
 70
64
  3
__ . __ . __ . __ . __ . __ . 
 72
65
 73
4
 40
1
 49
0.5
 49
-0.25
 49
0
 49
-0.25
  0
ENDTAB
  0
TABLE
  2
LAYER
 70
10
  0
LAYER
  2
1
 70
0
 62
7
  6
CONTINUOUS
  0
LAYER
  2
CONNECTIONS
 70
0
 62
-7
  6
CONTINUOUS
  0
ENDTAB
  0
ENDSEC
  0
SECTION
  2
BLOCKS
  0
BLOCK
  8
0
  2
TRICON
 70
0
 10
0
 20
0
  0
POLYLINE
  8
1
 70
1
 66
1
 40
0.5
 41
0.5
  0
VERTEX
  8
1
 10
-0.25
 20
0
 42
1
  0
VERTEX
  8
1
 10
0.25
 20
0
 42
1
  0
SEQEND
  8
1
  0
ENDBLK
  8
0
  0
BLOCK
  8
0
  2
TRICONSMALL
 70
0
 10
0
 20
0
  0
POLYLINE
  8
1
 70
1
 66
1
 40
0.25
 41
0.25
  0
VERTEX
  8
1
 10
-0.125
 20
0
 42
1
  0
VERTEX
  8
1
 10
0.125
 20
0
 42
1
  0
SEQEND
  8
1
  0
ENDBLK
  8
0
  0
BLOCK
  8
0
  2
TRICONCIRCLE
 70
0
 10
0
 20
0
  0
CIRCLE
  8
1
 10
0
 20
0
 40
0.5
  0
ENDBLK
  8
0
  0
BLOCK
  8
0
  2
LCBP0
 70
0
 10
0
 20
0
  0
LINE
  8
1
 10
0
 20
-0.46875
 11
0
 21
0.46875
  0
ENDBLK
  8
0
  0
BLOCK
  8
0
  2
LCBP1
 70
0
 10
0
 20
0
  0
LINE
  8
1
 10
0
 20
-0.625
 11
0
 21
0.625
  0
ENDBLK
  8
0
  0
BLOCK
  8
0
  2
LCBP2
 70
0
 10
0
 20
0
  0
LINE
  8
1
 10
0
 20
-0.9375
 11
0
 21
0.9375
  0
ENDBLK
  8
0
  0
BLOCK
  8
0
  2
LCA1
 70
0
 10
0
 20
0
  0
SOLID
  8
1
 62
7 
 10
0
 20
0
 11
-1.4
 21
-0.275
 12
-1.4
 22
0.275
 13
-1.4
 23
0.275
  0
ENDBLK
  8
0
  0
BLOCK
  8
0
  2
LCA2
 70
0
 10
0
 20
0
  0
SOLID
  8
1
 62
7 
 10
0
 20
0
 11
-1.65
 21
-0.525
 12
-1.65
 22
0.525
 13
-1.65
 23
0.525
  0
ENDBLK
  8
0
  0
BLOCK
  8
0
  2
LCA3
 70
0
 10
0
 20
0
  0
SOLID
  8
1
 62
7 
 10
0
 20
0
 11
-2.15
 21
-1.15
 12
-2.15
 22
1.15
 13
-2.15
 23
1.15
  0
ENDBLK
  8
0
  0
BLOCK
  8
0
  2
LCA1R
 70
0
 10
0
 20
0
  0
SOLID
  8
1
 62
7 
 10
0
 20
0
 11
1.4
 21
-0.275
 12
1.4
 22
0.275
 13
1.4
 23
0.275
  0
ENDBLK
  8
0
  0
BLOCK
  8
0
  2
LCA2R
 70
0
 10
0
 20
0
  0
SOLID
  8
1
 62
7 
 10
0
 20
0
 11
1.65
 21
-0.525
 12
1.65
 22
0.525
 13
1.65
 23
0.525
  0
ENDBLK
  8
0
  0
BLOCK
  8
0
  2
LCA3R
 70
0
 10
0
 20
0
  0
SOLID
  8
1
 62
7 
 10
0
 20
0
 11
2.15
 21
-1.15
 12
2.15
 22
1.15
 13
2.15
 23
1.15
  0
ENDBLK
  8
0
  0
BLOCK
  8
0
  2
B66113_00995777
 70
0
 10
0
 20
0
  0
TEXT
  8
1
 40
2.7
 41
0.75
  1
3(4)
  7
STANDARD
 73
3
 10
8.6
 20
-6.975
 11
8.6
 21
-6.975
  0
TEXT
  8
1
 40
2.7
 41
0.75
  1
(2)1
  7
STANDARD
 72
2
 73
3
 10
3.5
 20
-6.975
 11
3.5
 21
-6.975
  0
TEXT
  8
1
 40
2.7
 41
0.75
  1
(14)2
  7
STANDARD
 72
2
 73
3
 10
3.49999999999999
 20
8.62500000000001
 11
3.49999999999999
 21
8.62500000000001
  0
LINE
  8
1
 10
8
 20
-4.5
 11
8
 21
-8.5
  0
LINE
  8
1
 10
4
 20
-4.5
 11
4
 21
-8.5
  0
LINE
  8
1
 10
4
 20
3.5
 11
4
 21
7.5
  0
LINE
  8
1
 10
4
 20
5.5
 11
12
 21
5.5
  0
POLYLINE
  8
1
 70
1
 66
1
 40
0.5
 41
0.5
  0
VERTEX
  8
1
 10
3.75
 20
5.5
 42
1
  0
VERTEX
  8
1
 10
4.25
 20
5.5
 42
1
  0
SEQEND
  8
1
  0
LINE
  8
1
 10
14.5
 20
7
 11
15.2
 21
7
  0
LINE
  8
1
 10
16.65
 20
7
 11
17.35
 21
7
  0
LINE
  8
1
 10
15.2
 20
7
 11
17
 21
7.7
  0
ARC
  8
1
 10
13.75
 20
4.5
 40
0.5
 50
270
 51
90
  0
LINE
  8
1
 10
13.75
 20
4
 11
13
 21
4
  0
LINE
  8
1
 10
13
 20
5
 11
13.75
 21
5
  0
LINE
  8
1
 10
13
 20
3.15
 11
13
 21
5
  0
POLYLINE
  8
1
 66
1
  0
VERTEX
  8
1
 10
12
 20
8.5
  0
VERTEX
  8
1
 10
18
 20
8.5
  0
VERTEX
  8
1
 10
18
 20
2.5
  0
VERTEX
  8
1
 10
12
 20
2.5
  0
VERTEX
  8
1
 10
12
 20
8.5
  0
SEQEND
  8
1
  0
LINE
  8
1
 10
12
 20
8.5
 11
18
 21
2.5
  0
POLYLINE
  8
1
 66
1
  0
VERTEX
  8
1
 10
15
 20
-2.5
  0
VERTEX
  8
1
 10
14.5833333333333
 20
-4.5
  0
VERTEX
  8
1
 10
13.75
 20
-0.5
  0
VERTEX
  8
1
 10
12.9166666666667
 20
-4.5
  0
VERTEX
  8
1
 10
12.0833333333333
 20
-0.5
  0
VERTEX
  8
1
 10
11.25
 20
-4.5
  0
VERTEX
  8
1
 10
10.4166666666667
 20
-0.5
  0
VERTEX
  8
1
 10
10
 20
-2.5
  0
SEQEND
  8
1
  0
LINE
  8
1
 10
-16
 20
-4.5
 11
-14
 21
-0.5
  0
POLYLINE
  8
1
 66
1
  0
VERTEX
  8
1
 10
-18
 20
-0.5
  0
VERTEX
  8
1
 10
-12
 20
-0.5
  0
VERTEX
  8
1
 10
-12
 20
-4.5
  0
VERTEX
  8
1
 10
-18
 20
-4.5
  0
VERTEX
  8
1
 10
-18
 20
-0.5
  0
SEQEND
  8
1
  0
LINE
  8
1
 10
-12
 20
-0.5
 11
-12
 21
-4.5
  0
POLYLINE
  8
1
 66
1
  0
VERTEX
  8
1
 10
-12
 20
-0.5
  0
VERTEX
  8
1
 10
-6
 20
-0.5
  0
VERTEX
  8
1
 10
-6
 20
-4.5
  0
VERTEX
  8
1
 10
-12
 20
-4.5
  0
VERTEX
  8
1
 10
-12
 20
-0.5
  0
SEQEND
  8
1
  0
LINE
  8
1
 10
-12
 20
-0.5
 11
-8.53589838486224
 21
-2.5
  0
LINE
  8
1
 10
-12
 20
-4.5
 11
-8.53589838486224
 21
-2.5
  0
LINE
  8
1
 10
4
 20
-4.5
 11
4
 21
-2.5
  0
INSERT
  8
1
  2
LCBP1
 10
4
 20
-2.5
 50
90
  0
POLYLINE
  8
1
 66
1
  0
VERTEX
  8
1
 10
2
 20
3.5
  0
VERTEX
  8
1
 10
10
 20
3.5
  0
VERTEX
  8
1
 10
10
 20
-4.5
  0
VERTEX
  8
1
 10
2
 20
-4.5
  0
VERTEX
  8
1
 10
2
 20
3.5
  0
SEQEND
  8
1
  0
LINE
  8
1
 10
4
 20
3.5
 11
8
 21
-4.5
  0
INSERT
  8
1
  2
LCA1
 10
8
 20
-4.5
 50
-63.434948822922
  0
POLYLINE
  8
1
 66
1
  0
VERTEX
  8
1
 10
-6
 20
3.5
  0
VERTEX
  8
1
 10
2
 20
3.5
  0
VERTEX
  8
1
 10
2
 20
-4.5
  0
VERTEX
  8
1
 10
-6
 20
-4.5
  0
VERTEX
  8
1
 10
-6
 20
3.5
  0
SEQEND
  8
1
  0
LINE
  8
1
 10
0
 20
-4.5
 11
0
 21
-2.5
  0
INSERT
  8
1
  2
LCBP1
 10
0
 20
-2.5
 50
90
  0
LINE
  8
1
 10
-4
 20
-4.5
 11
-4
 21
3.5
  0
INSERT
  8
1
  2
LCA1
 10
-4
 20
3.5
 50
90
  0
CIRCLE
  8
CONNECTIONS
 10
-18.0152482350667
 20
-2.6
 40
0
  0
CIRCLE
  8
CONNECTIONS
 10
4
 20
7.5
 40
0
  0
CIRCLE
  8
CONNECTIONS
 10
4
 20
-8.5
 40
0
  0
CIRCLE
  8
CONNECTIONS
 10
8
 20
-8.5
 40
0
  0
ENDBLK
  8
0
  0
ENDSEC
  0
SECTION
  2
ENTITIES
  0
INSERT
  8
1
  2
B66113_00995777
 10
18
 20
8.5
  0
ENDSEC
  0
EOF
