  0
SECTION
  2
HEADER
  9
$LIMMIN
 10
0
 20
0
  9
$LIMMAX
 10
52.5
 20
74.25
  9
$EXTMIN
 10
0
 20
67
  9
$EXTMAX
 10
0
 20
28
  0
ENDSEC
  0
SECTION
  2
TABLES
  0
TABLE
  2
LTYPE
 70
9
  0
LTYPE
  2
CONTINUOUS
 70
64
  3
Solid line
 72
65
 73
0
 40
0
  0
LTYPE
  2
DASHED
 70
64
  3
__ __ __ __ __ __ __ __ __
 72
65
 73
2
 40
0.75
 49
0.5
 49
-0.25
  0
LTYPE
  2
DOT
 70
64
  3
...........................
 72
65
 73
2
 40
0.25
 49
0
 49
-0.25
  0
LTYPE
  2
DASHDOT
 70
64
  3
__ . __ . __ . __ . __ . __ . 
 72
65
 73
4
 40
1
 49
0.5
 49
-0.25
 49
0
 49
-0.25
  0
ENDTAB
  0
TABLE
  2
LAYER
 70
10
  0
LAYER
  2
1
 70
0
 62
7
  6
CONTINUOUS
  0
LAYER
  2
CONNECTIONS
 70
0
 62
-7
  6
CONTINUOUS
  0
ENDTAB
  0
ENDSEC
  0
SECTION
  2
BLOCKS
  0
BLOCK
  8
0
  2
TRICON
 70
0
 10
0
 20
0
  0
POLYLINE
  8
1
 70
1
 66
1
 40
0.5
 41
0.5
  0
VERTEX
  8
1
 10
-0.25
 20
0
 42
1
  0
VERTEX
  8
1
 10
0.25
 20
0
 42
1
  0
SEQEND
  8
1
  0
ENDBLK
  8
0
  0
BLOCK
  8
0
  2
TRICONSMALL
 70
0
 10
0
 20
0
  0
POLYLINE
  8
1
 70
1
 66
1
 40
0.25
 41
0.25
  0
VERTEX
  8
1
 10
-0.125
 20
0
 42
1
  0
VERTEX
  8
1
 10
0.125
 20
0
 42
1
  0
SEQEND
  8
1
  0
ENDBLK
  8
0
  0
BLOCK
  8
0
  2
TRICONCIRCLE
 70
0
 10
0
 20
0
  0
CIRCLE
  8
1
 10
0
 20
0
 40
0.5
  0
ENDBLK
  8
0
  0
BLOCK
  8
0
  2
LCBP0
 70
0
 10
0
 20
0
  0
LINE
  8
1
 10
0
 20
-0.46875
 11
0
 21
0.46875
  0
ENDBLK
  8
0
  0
BLOCK
  8
0
  2
LCBP1
 70
0
 10
0
 20
0
  0
LINE
  8
1
 10
0
 20
-0.625
 11
0
 21
0.625
  0
ENDBLK
  8
0
  0
BLOCK
  8
0
  2
LCBP2
 70
0
 10
0
 20
0
  0
LINE
  8
1
 10
0
 20
-0.9375
 11
0
 21
0.9375
  0
ENDBLK
  8
0
  0
BLOCK
  8
0
  2
LCA1
 70
0
 10
0
 20
0
  0
SOLID
  8
1
 62
7 
 10
0
 20
0
 11
-1.4
 21
-0.275
 12
-1.4
 22
0.275
 13
-1.4
 23
0.275
  0
ENDBLK
  8
0
  0
BLOCK
  8
0
  2
LCA2
 70
0
 10
0
 20
0
  0
SOLID
  8
1
 62
7 
 10
0
 20
0
 11
-1.65
 21
-0.525
 12
-1.65
 22
0.525
 13
-1.65
 23
0.525
  0
ENDBLK
  8
0
  0
BLOCK
  8
0
  2
LCA3
 70
0
 10
0
 20
0
  0
SOLID
  8
1
 62
7 
 10
0
 20
0
 11
-2.15
 21
-1.15
 12
-2.15
 22
1.15
 13
-2.15
 23
1.15
  0
ENDBLK
  8
0
  0
BLOCK
  8
0
  2
LCA1R
 70
0
 10
0
 20
0
  0
SOLID
  8
1
 62
7 
 10
0
 20
0
 11
1.4
 21
-0.275
 12
1.4
 22
0.275
 13
1.4
 23
0.275
  0
ENDBLK
  8
0
  0
BLOCK
  8
0
  2
LCA2R
 70
0
 10
0
 20
0
  0
SOLID
  8
1
 62
7 
 10
0
 20
0
 11
1.65
 21
-0.525
 12
1.65
 22
0.525
 13
1.65
 23
0.525
  0
ENDBLK
  8
0
  0
BLOCK
  8
0
  2
LCA3R
 70
0
 10
0
 20
0
  0
SOLID
  8
1
 62
7 
 10
0
 20
0
 11
2.15
 21
-1.15
 12
2.15
 22
1.15
 13
2.15
 23
1.15
  0
ENDBLK
  8
0
  0
BLOCK
  8
0
  2
B18201_00995773
 70
0
 10
0
 20
0
  0
POLYLINE
  8
1
 66
1
  0
VERTEX
  8
1
 10
-33.5
 20
10
  0
VERTEX
  8
1
 10
33.5
 20
10
  0
VERTEX
  8
1
 10
33.5
 20
-10
  0
VERTEX
  8
1
 10
-33.5
 20
-10
  0
VERTEX
  8
1
 10
-33.5
 20
10
  0
SEQEND
  8
1
  0
TEXT
  8
1
 40
2.475
 41
0.75
  1
12
  7
STANDARD
 10
-30.5
 20
10.8652674039205
  0
TEXT
  8
1
 40
2.475
 41
0.75
  1
2
  7
STANDARD
 72
2
 10
20.1329506238302
 20
10.8231671333313
 11
20.1329506238302
 21
10.8231671333313
  0
LINE
  8
1
 10
-31.5
 20
10
 11
-31.5
 21
14
  0
LINE
  8
1
 10
20.5
 20
10
 11
20.5
 21
14
  0
TEXT
  8
1
 40
2.475
 41
0.75
  1
1
  7
STANDARD
 72
2
 73
2
 10
20.1329506238302
 20
-13.0421002705892
 11
20.1329506238302
 21
-13.0421002705892
  0
TEXT
  8
1
 40
2.475
 41
0.75
  1
3
  7
STANDARD
 73
2
 10
24.6722013155619
 20
-12.8754336039225
 11
24.6722013155619
 21
-12.8754336039225
  0
LINE
  8
1
 10
24.5
 20
-10
 11
24.5
 21
-14
  0
LINE
  8
1
 10
20.5
 20
-10
 11
20.5
 21
-14
  0
LINE
  8
1
 10
20.5
 20
6
 11
20.5
 21
10
  0
LINE
  8
1
 10
24.5
 20
-10
 11
24.5
 21
-2
  0
LINE
  8
1
 10
20.5
 20
-10
 11
20.5
 21
-2
  0
LINE
  8
1
 10
-19.5
 20
0
 11
-15.5
 21
0
  0
POLYLINE
  8
1
 66
1
  0
VERTEX
  8
1
 10
-21.5
 20
-6
  0
VERTEX
  8
1
 10
-19.5
 20
-6
  0
VERTEX
  8
1
 10
-19.5
 20
0
  0
SEQEND
  8
1
  0
POLYLINE
  8
1
 70
1
 66
1
 40
0.5
 41
0.5
  0
VERTEX
  8
1
 10
-19.75
 20
0
 42
1
  0
VERTEX
  8
1
 10
-19.25
 20
0
 42
1
  0
SEQEND
  8
1
  0
POLYLINE
  8
1
 70
1
 66
1
 40
0.5
 41
0.5
  0
VERTEX
  8
1
 10
-31.75
 20
0
 42
1
  0
VERTEX
  8
1
 10
-31.25
 20
0
 42
1
  0
SEQEND
  8
1
  0
POLYLINE
  8
1
 66
1
  0
VERTEX
  8
1
 10
-31.5
 20
10
  0
VERTEX
  8
1
 10
-31.5
 20
-6
  0
VERTEX
  8
1
 10
-29.5
 20
-6
  0
SEQEND
  8
1
  0
LINE
  8
1
 10
-21.5
 20
-6
 11
-23.9333333333333
 21
-6
  0
LINE
  8
1
 10
-26.4666666666667
 20
-6
 11
-29.4333333333333
 21
-6
  0
POLYLINE
  8
1
 66
1
  0
VERTEX
  8
1
 10
-25.9333333333333
 20
-8
  0
VERTEX
  8
1
 10
-23.9333333333333
 20
-6
  0
VERTEX
  8
1
 10
-25.9333333333333
 20
-4
  0
SEQEND
  8
1
  0
CIRCLE
  8
1
 10
-25.4
 20
-6
 40
1
  0
LINE
  8
1
 10
-19.5
 20
0
 11
-31.5
 21
0
  0
LINE
  8
1
 10
-26.9666666666667
 20
-3.33333333333333
 11
-23.9666666666667
 21
3.66666666666667
  0
INSERT
  8
1
  2
LCA1
 10
-23.9666666666667
 20
3.66666666666667
 50
66.8014094863518
  0
ARC
  8
1
 10
-25.5
 20
-10
 40
9
 50
70.5289494206614
 51
109.471403199945
  0
ARC
  8
1
 10
-25.5
 20
10
 40
9
 50
250.52860468454
 51
289.47134129249
  0
POLYLINE
  8
1
 66
1
  0
VERTEX
  8
1
 10
31.5
 20
0
  0
VERTEX
  8
1
 10
31.0833333333333
 20
-2
  0
VERTEX
  8
1
 10
30.25
 20
2
  0
VERTEX
  8
1
 10
29.4166666666667
 20
-2
  0
VERTEX
  8
1
 10
28.5833333333333
 20
2
  0
VERTEX
  8
1
 10
27.75
 20
-2
  0
VERTEX
  8
1
 10
26.9166666666667
 20
2
  0
VERTEX
  8
1
 10
26.5
 20
0
  0
SEQEND
  8
1
  0
ARC
  8
1
 10
-3.5
 20
0
 40
4
 50
270
 51
90
  0
ARC
  8
1
 10
-11.5
 20
0
 40
4
 50
90
 51
270
  0
LINE
  8
1
 10
-11.5
 20
4
 11
-3.5
 21
4
  0
LINE
  8
1
 10
-11.5
 20
-4
 11
-3.5
 21
-4
  0
LINE
  8
1
 10
6.50000000000694
 20
0
 11
10.5
 21
0
  0
LINE
  8
1
 10
3.03591140703788
 20
7.51835257991236E-06
 11
0.5
 21
7.51835257991236E-06
  0
LINE
  8
1
 10
3.03591140703788
 20
2.00000751835258
 11
3.03591140703788
 21
-1.99999248164742
  0
LINE
  8
1
 10
3.03591140703788
 20
2.00000751835258
 11
6.50001302217564
 21
7.51835257991236E-06
  0
LINE
  8
1
 10
3.03591140703788
 20
-1.99999248164742
 11
6.50001302217564
 21
7.51835257991236E-06
  0
LINE
  8
1
 10
12.5
 20
-2
 11
12.5
 21
0
  0
INSERT
  8
1
  2
LCBP1
 10
12.5
 20
0
 50
90
  0
POLYLINE
  8
1
 66
1
  0
VERTEX
  8
1
 10
10.5
 20
6
  0
VERTEX
  8
1
 10
18.5
 20
6
  0
VERTEX
  8
1
 10
18.5
 20
-2
  0
VERTEX
  8
1
 10
10.5
 20
-2
  0
VERTEX
  8
1
 10
10.5
 20
6
  0
SEQEND
  8
1
  0
LINE
  8
1
 10
12.5
 20
6
 11
16.5
 21
-2
  0
INSERT
  8
1
  2
LCA1
 10
16.5
 20
-2
 50
-63.434948822922
  0
POLYLINE
  8
1
 66
1
  0
VERTEX
  8
1
 10
18.5
 20
6
  0
VERTEX
  8
1
 10
26.5
 20
6
  0
VERTEX
  8
1
 10
26.5
 20
-2
  0
VERTEX
  8
1
 10
18.5
 20
-2
  0
VERTEX
  8
1
 10
18.5
 20
6
  0
SEQEND
  8
1
  0
LINE
  8
1
 10
24.5
 20
-2
 11
24.5
 21
0
  0
INSERT
  8
1
  2
LCBP1
 10
24.5
 20
0
 50
90
  0
LINE
  8
1
 10
20.5
 20
-2
 11
20.5
 21
6
  0
INSERT
  8
1
  2
LCA1
 10
20.5
 20
6
 50
90
  0
CIRCLE
  8
CONNECTIONS
 10
20.5
 20
13.8333333333333
 40
0
  0
CIRCLE
  8
CONNECTIONS
 10
-31.5
 20
14
 40
0
  0
CIRCLE
  8
CONNECTIONS
 10
20.5
 20
-14
 40
0
  0
CIRCLE
  8
CONNECTIONS
 10
24.5
 20
-14
 40
0
  0
ENDBLK
  8
0
  0
ENDSEC
  0
SECTION
  2
ENTITIES
  0
INSERT
  8
1
  2
B18201_00995773
 10
33.5
 20
14
  0
ENDSEC
  0
EOF
