  0
SECTION
  2
HEADER
  9
$LIMMIN
 10
0
 20
0
  9
$LIMMAX
 10
52.5
 20
74.25
  9
$EXTMIN
 10
0
 20
140
  9
$EXTMAX
 10
0
 20
140
  0
ENDSEC
  0
SECTION
  2
TABLES
  0
TABLE
  2
LTYPE
 70
9
  0
LTYPE
  2
CONTINUOUS
 70
64
  3
Solid line
 72
65
 73
0
 40
0
  0
LTYPE
  2
DASHED
 70
64
  3
__ __ __ __ __ __ __ __ __
 72
65
 73
2
 40
0.75
 49
0.5
 49
-0.25
  0
LTYPE
  2
DOT
 70
64
  3
...........................
 72
65
 73
2
 40
0.25
 49
0
 49
-0.25
  0
LTYPE
  2
DASHDOT
 70
64
  3
__ . __ . __ . __ . __ . __ . 
 72
65
 73
4
 40
1
 49
0.5
 49
-0.25
 49
0
 49
-0.25
  0
ENDTAB
  0
TABLE
  2
LAYER
 70
10
  0
LAYER
  2
1
 70
0
 62
7
  6
CONTINUOUS
  0
LAYER
  2
CONNECTIONS
 70
0
 62
-7
  6
CONTINUOUS
  0
ENDTAB
  0
ENDSEC
  0
SECTION
  2
BLOCKS
  0
BLOCK
  8
0
  2
TRICON
 70
0
 10
0
 20
0
  0
POLYLINE
  8
1
 70
1
 66
1
 40
0.5
 41
0.5
  0
VERTEX
  8
1
 10
-0.25
 20
0
 42
1
  0
VERTEX
  8
1
 10
0.25
 20
0
 42
1
  0
SEQEND
  8
1
  0
ENDBLK
  8
0
  0
BLOCK
  8
0
  2
TRICONSMALL
 70
0
 10
0
 20
0
  0
POLYLINE
  8
1
 70
1
 66
1
 40
0.25
 41
0.25
  0
VERTEX
  8
1
 10
-0.125
 20
0
 42
1
  0
VERTEX
  8
1
 10
0.125
 20
0
 42
1
  0
SEQEND
  8
1
  0
ENDBLK
  8
0
  0
BLOCK
  8
0
  2
TRICONCIRCLE
 70
0
 10
0
 20
0
  0
CIRCLE
  8
1
 10
0
 20
0
 40
0.5
  0
ENDBLK
  8
0
  0
BLOCK
  8
0
  2
LCBP0
 70
0
 10
0
 20
0
  0
LINE
  8
1
 10
0
 20
-0.46875
 11
0
 21
0.46875
  0
ENDBLK
  8
0
  0
BLOCK
  8
0
  2
LCBP1
 70
0
 10
0
 20
0
  0
LINE
  8
1
 10
0
 20
-0.625
 11
0
 21
0.625
  0
ENDBLK
  8
0
  0
BLOCK
  8
0
  2
LCBP2
 70
0
 10
0
 20
0
  0
LINE
  8
1
 10
0
 20
-0.9375
 11
0
 21
0.9375
  0
ENDBLK
  8
0
  0
BLOCK
  8
0
  2
LCA1
 70
0
 10
0
 20
0
  0
SOLID
  8
1
 62
7 
 10
0
 20
0
 11
-1.4
 21
-0.275
 12
-1.4
 22
0.275
 13
-1.4
 23
0.275
  0
ENDBLK
  8
0
  0
BLOCK
  8
0
  2
LCA2
 70
0
 10
0
 20
0
  0
SOLID
  8
1
 62
7 
 10
0
 20
0
 11
-1.65
 21
-0.525
 12
-1.65
 22
0.525
 13
-1.65
 23
0.525
  0
ENDBLK
  8
0
  0
BLOCK
  8
0
  2
LCA3
 70
0
 10
0
 20
0
  0
SOLID
  8
1
 62
7 
 10
0
 20
0
 11
-2.15
 21
-1.15
 12
-2.15
 22
1.15
 13
-2.15
 23
1.15
  0
ENDBLK
  8
0
  0
BLOCK
  8
0
  2
LCA1R
 70
0
 10
0
 20
0
  0
SOLID
  8
1
 62
7 
 10
0
 20
0
 11
1.4
 21
-0.275
 12
1.4
 22
0.275
 13
1.4
 23
0.275
  0
ENDBLK
  8
0
  0
BLOCK
  8
0
  2
LCA2R
 70
0
 10
0
 20
0
  0
SOLID
  8
1
 62
7 
 10
0
 20
0
 11
1.65
 21
-0.525
 12
1.65
 22
0.525
 13
1.65
 23
0.525
  0
ENDBLK
  8
0
  0
BLOCK
  8
0
  2
LCA3R
 70
0
 10
0
 20
0
  0
SOLID
  8
1
 62
7 
 10
0
 20
0
 11
2.15
 21
-1.15
 12
2.15
 22
1.15
 13
2.15
 23
1.15
  0
ENDBLK
  8
0
  0
BLOCK
  8
0
  2
B3261_00995770
 70
0
 10
0
 20
0
  0
TEXT
  8
1
 40
7.2
 41
0.75
  1
8
  7
STANDARD
 10
15
 20
-42.4
  0
TEXT
  8
1
 40
7.2
 41
0.75
  1
17
  7
STANDARD
 10
-25
 20
-42.4
  0
TEXT
  8
1
 40
7.2
 41
0.75
  1
7
  7
STANDARD
 10
34
 20
-32.4
  0
TEXT
  8
1
 40
7.2
 41
0.75
  1
16
  7
STANDARD
 10
-6
 20
-31.4
  0
TEXT
  8
1
 40
7.2
 41
0.75
  1
24
  7
STANDARD
 10
-43
 20
-32.4
  0
TEXT
  8
1
 40
7.2
 41
0.75
  1
1
  7
STANDARD
 10
53
 20
-22.4
  0
TEXT
  8
1
 40
7.2
 41
0.75
  1
9
  7
STANDARD
 10
15
 20
-20.2020795186361
  0
TEXT
  8
1
 40
7.2
 41
0.75
  1
18
  7
STANDARD
 10
-25
 20
-20.2020795186361
  0
TEXT
  8
1
 40
7.2
 41
0.75
  1
6
  7
STANDARD
 10
34
 20
-10.2020795186361
  0
TEXT
  8
1
 40
7.2
 41
0.75
  1
15
  7
STANDARD
 10
-6
 20
-9.20207951863607
  0
TEXT
  8
1
 40
7.2
 41
0.75
  1
23
  7
STANDARD
 10
-43
 20
-10.2020795186361
  0
TEXT
  8
1
 40
7.2
 41
0.75
  1
2
  7
STANDARD
 10
53
 20
-0.202079518636066
  0
TEXT
  8
1
 40
7.2
 41
0.75
  1
10
  7
STANDARD
 10
14
 20
1.79792048136393
  0
TEXT
  8
1
 40
7.2
 41
0.75
  1
19
  7
STANDARD
 10
-25
 20
1.79792048136393
  0
TEXT
  8
1
 40
7.2
 41
0.75
  1
5
  7
STANDARD
 10
34
 20
11.7979204813639
  0
TEXT
  8
1
 40
7.2
 41
0.75
  1
14
  7
STANDARD
 10
-6
 20
12.7979204813639
  0
TEXT
  8
1
 40
7.2
 41
0.75
  1
22
  7
STANDARD
 10
-43
 20
11.7979204813639
  0
TEXT
  8
1
 40
7.2
 41
0.75
  1
3
  7
STANDARD
 10
53
 20
21.7979204813639
  0
TEXT
  8
1
 40
7.2
 41
0.75
  1
11
  7
STANDARD
 10
14
 20
23.7979204813639
  0
TEXT
  8
1
 40
7.2
 41
0.75
  1
20
  7
STANDARD
 10
-24
 20
23.7979204813639
  0
TEXT
  8
1
 40
7.2
 41
0.75
  1
4
  7
STANDARD
 10
34
 20
33.7979204813639
  0
TEXT
  8
1
 40
7.2
 41
0.75
  1
13
  7
STANDARD
 10
-6
 20
34.7979204813639
  0
TEXT
  8
1
 40
7.2
 41
0.75
  1
12
  7
STANDARD
 10
14
 20
45.7979204813639
  0
TEXT
  8
1
 40
7.2
 41
0.75
  1
21
  7
STANDARD
 10
-24
 20
45.7979204813639
  0
LINE
  8
1
 10
-33.8
 20
5.00000000000002
 11
-23.8
 21
5.00000000000002
  0
LINE
  8
1
 10
-28.8
 20
2.26485497023532E-14
 11
-28.8
 21
10
  0
LINE
  8
1
 10
-33.8
 20
-38.8
 11
-23.8
 21
-38.8
  0
LINE
  8
1
 10
-28.8
 20
-43.8
 11
-28.8
 21
-33.8
  0
LINE
  8
1
 10
-53
 20
-28
 11
-43
 21
-28
  0
LINE
  8
1
 10
-48
 20
-33
 11
-48
 21
-23
  0
LINE
  8
1
 10
-33.8
 20
-17.2
 11
-23.8
 21
-17.2
  0
LINE
  8
1
 10
-28.8
 20
-22.2
 11
-28.8
 21
-12.2
  0
LINE
  8
1
 10
-53
 20
-5.79999999999999
 11
-43
 21
-5.79999999999999
  0
LINE
  8
1
 10
-48
 20
-10.8
 11
-48
 21
-0.799999999999992
  0
LINE
  8
1
 10
48
 20
-22.2
 11
48
 21
-12.2
  0
LINE
  8
1
 10
4.60000000000003
 20
-38.8
 11
14.6
 21
-38.8
  0
LINE
  8
1
 10
9.60000000000002
 20
-43.8
 11
9.60000000000002
 21
-33.8
  0
LINE
  8
1
 10
23.8
 20
-28
 11
33.8
 21
-28
  0
LINE
  8
1
 10
28.8
 20
-33
 11
28.8
 21
-23
  0
LINE
  8
1
 10
43
 20
-17.2
 11
53
 21
-17.2
  0
LINE
  8
1
 10
48
 20
22.2
 11
48
 21
32.2
  0
LINE
  8
1
 10
28.8
 20
11.4
 11
28.8
 21
21.4
  0
LINE
  8
1
 10
43
 20
27.2
 11
53
 21
27.2
  0
LINE
  8
1
 10
23.8
 20
16.4
 11
33.8
 21
16.4
  0
LINE
  8
1
 10
48
 20
1.52470628715188E-14
 11
48
 21
10
  0
LINE
  8
1
 10
23.8
 20
-5.79999999999998
 11
33.8
 21
-5.79999999999998
  0
LINE
  8
1
 10
28.8
 20
-10.8
 11
28.8
 21
-0.799999999999977
  0
LINE
  8
1
 10
43
 20
5.00000000000001
 11
53
 21
5.00000000000001
  0
LINE
  8
1
 10
-14.6
 20
-28
 11
-4.59999999999998
 21
-28
  0
LINE
  8
1
 10
-9.59999999999998
 20
-33
 11
-9.59999999999998
 21
-23
  0
LINE
  8
1
 10
4.60000000000003
 20
-17.2
 11
14.6
 21
-17.2
  0
LINE
  8
1
 10
9.60000000000002
 20
-22.2
 11
9.60000000000002
 21
-12.2
  0
LINE
  8
1
 10
-14.6
 20
-5.79999999999999
 11
-4.59999999999998
 21
-5.79999999999999
  0
LINE
  8
1
 10
-9.59999999999998
 20
-10.8
 11
-9.59999999999998
 21
-0.799999999999992
  0
LINE
  8
1
 10
4.60000000000003
 20
5
 11
14.6
 21
5
  0
LINE
  8
1
 10
9.60000000000002
 20
0
 11
9.60000000000002
 21
10
  0
LINE
  8
1
 10
29
 20
33
 11
29
 21
43
  0
LINE
  8
1
 10
-14.4
 20
16.4
 11
-4.39999999999997
 21
16.4
  0
LINE
  8
1
 10
-9.39999999999998
 20
11.4
 11
-9.39999999999998
 21
21.4
  0
LINE
  8
1
 10
4.80000000000003
 20
27.2
 11
14.8
 21
27.2
  0
LINE
  8
1
 10
9.80000000000003
 20
22.2
 11
9.80000000000003
 21
32.2
  0
LINE
  8
1
 10
24
 20
38
 11
34
 21
38
  0
LINE
  8
1
 10
4.59999999999999
 20
48.8
 11
14.6
 21
48.8
  0
LINE
  8
1
 10
9.59999999999998
 20
43.8
 11
9.59999999999998
 21
53.8
  0
LINE
  8
1
 10
-53
 20
16.4
 11
-43
 21
16.4
  0
LINE
  8
1
 10
-48
 20
11.4
 11
-48
 21
21.4
  0
LINE
  8
1
 10
-33.8685138599738
 20
48.7
 11
-23.8685138599738
 21
48.7
  0
LINE
  8
1
 10
-28.8685138599738
 20
43.7
 11
-28.8685138599738
 21
53.7
  0
LINE
  8
1
 10
-33.8
 20
27.2
 11
-23.8
 21
27.2
  0
LINE
  8
1
 10
-28.8
 20
22.2
 11
-28.8
 21
32.2
  0
LINE
  8
1
 10
-14.6
 20
38
 11
-4.59999999999998
 21
38
  0
LINE
  8
1
 10
-9.59999999999998
 20
33
 11
-9.59999999999998
 21
43
  0
CIRCLE
  8
1
 10
0
 20
0
 40
70
  0
ARC
  8
1
 10
0
 20
-68.5
 40
14
 50
0
 51
180
  0
ENDBLK
  8
0
  0
ENDSEC
  0
SECTION
  2
ENTITIES
  0
INSERT
  8
1
  2
B3261_00995770
 10
70
 20
70
  0
ENDSEC
  0
EOF
