  0
SECTION
  2
HEADER
  9
$LIMMIN
 10
0
 20
0
  9
$LIMMAX
 10
52.5
 20
74.25
  9
$EXTMIN
 10
0
 20
126.517355600993
  9
$EXTMAX
 10
0
 20
48
  0
ENDSEC
  0
SECTION
  2
TABLES
  0
TABLE
  2
LTYPE
 70
9
  0
LTYPE
  2
CONTINUOUS
 70
64
  3
Solid line
 72
65
 73
0
 40
0
  0
LTYPE
  2
DASHED
 70
64
  3
__ __ __ __ __ __ __ __ __
 72
65
 73
2
 40
0.75
 49
0.5
 49
-0.25
  0
LTYPE
  2
DOT
 70
64
  3
...........................
 72
65
 73
2
 40
0.25
 49
0
 49
-0.25
  0
LTYPE
  2
DASHDOT
 70
64
  3
__ . __ . __ . __ . __ . __ . 
 72
65
 73
4
 40
1
 49
0.5
 49
-0.25
 49
0
 49
-0.25
  0
ENDTAB
  0
TABLE
  2
LAYER
 70
10
  0
LAYER
  2
1
 70
0
 62
7
  6
CONTINUOUS
  0
LAYER
  2
CONNECTIONS
 70
0
 62
-7
  6
CONTINUOUS
  0
ENDTAB
  0
ENDSEC
  0
SECTION
  2
BLOCKS
  0
BLOCK
  8
0
  2
TRICON
 70
0
 10
0
 20
0
  0
POLYLINE
  8
1
 70
1
 66
1
 40
0.5
 41
0.5
  0
VERTEX
  8
1
 10
-0.25
 20
0
 42
1
  0
VERTEX
  8
1
 10
0.25
 20
0
 42
1
  0
SEQEND
  8
1
  0
ENDBLK
  8
0
  0
BLOCK
  8
0
  2
TRICONSMALL
 70
0
 10
0
 20
0
  0
POLYLINE
  8
1
 70
1
 66
1
 40
0.25
 41
0.25
  0
VERTEX
  8
1
 10
-0.125
 20
0
 42
1
  0
VERTEX
  8
1
 10
0.125
 20
0
 42
1
  0
SEQEND
  8
1
  0
ENDBLK
  8
0
  0
BLOCK
  8
0
  2
TRICONCIRCLE
 70
0
 10
0
 20
0
  0
CIRCLE
  8
1
 10
0
 20
0
 40
0.5
  0
ENDBLK
  8
0
  0
BLOCK
  8
0
  2
LCBP0
 70
0
 10
0
 20
0
  0
LINE
  8
1
 10
0
 20
-0.46875
 11
0
 21
0.46875
  0
ENDBLK
  8
0
  0
BLOCK
  8
0
  2
LCBP1
 70
0
 10
0
 20
0
  0
LINE
  8
1
 10
0
 20
-0.625
 11
0
 21
0.625
  0
ENDBLK
  8
0
  0
BLOCK
  8
0
  2
LCBP2
 70
0
 10
0
 20
0
  0
LINE
  8
1
 10
0
 20
-0.9375
 11
0
 21
0.9375
  0
ENDBLK
  8
0
  0
BLOCK
  8
0
  2
LCA1
 70
0
 10
0
 20
0
  0
SOLID
  8
1
 62
7 
 10
0
 20
0
 11
-1.4
 21
-0.275
 12
-1.4
 22
0.275
 13
-1.4
 23
0.275
  0
ENDBLK
  8
0
  0
BLOCK
  8
0
  2
LCA2
 70
0
 10
0
 20
0
  0
SOLID
  8
1
 62
7 
 10
0
 20
0
 11
-1.65
 21
-0.525
 12
-1.65
 22
0.525
 13
-1.65
 23
0.525
  0
ENDBLK
  8
0
  0
BLOCK
  8
0
  2
LCA3
 70
0
 10
0
 20
0
  0
SOLID
  8
1
 62
7 
 10
0
 20
0
 11
-2.15
 21
-1.15
 12
-2.15
 22
1.15
 13
-2.15
 23
1.15
  0
ENDBLK
  8
0
  0
BLOCK
  8
0
  2
LCA1R
 70
0
 10
0
 20
0
  0
SOLID
  8
1
 62
7 
 10
0
 20
0
 11
1.4
 21
-0.275
 12
1.4
 22
0.275
 13
1.4
 23
0.275
  0
ENDBLK
  8
0
  0
BLOCK
  8
0
  2
LCA2R
 70
0
 10
0
 20
0
  0
SOLID
  8
1
 62
7 
 10
0
 20
0
 11
1.65
 21
-0.525
 12
1.65
 22
0.525
 13
1.65
 23
0.525
  0
ENDBLK
  8
0
  0
BLOCK
  8
0
  2
LCA3R
 70
0
 10
0
 20
0
  0
SOLID
  8
1
 62
7 
 10
0
 20
0
 11
2.15
 21
-1.15
 12
2.15
 22
1.15
 13
2.15
 23
1.15
  0
ENDBLK
  8
0
  0
BLOCK
  8
0
  2
B2965_00995735
 70
0
 10
0
 20
0
  0
POLYLINE
  8
1
 66
1
  0
VERTEX
  8
1
 10
-61.9323431650798
 20
24
  0
VERTEX
  8
1
 10
62.0676568349203
 20
24
  0
VERTEX
  8
1
 10
62.0676568349203
 20
-24
  0
VERTEX
  8
1
 10
-61.9323431650798
 20
-24
  0
VERTEX
  8
1
 10
-61.9323431650798
 20
24
  0
SEQEND
  8
1
  0
TEXT
  8
1
 40
6
 41
0.75
  1
19
  7
STANDARD
 10
47.8024304707845
 20
-14.9505200386047
  0
TEXT
  8
1
 40
6.075
 41
0.75
  1
26
  7
STANDARD
 72
2
 10
-47.8024304707845
 20
-14.9130200386047
 11
-47.8024304707845
 21
-14.9130200386047
  0
TEXT
  8
1
 40
6.075
 41
0.75
  1
10
  7
STANDARD
 10
49.8024304707845
 20
-3.91302003860474
  0
TEXT
  8
1
 40
6.075
 41
0.75
  1
18
  7
STANDARD
 72
2
 10
-49.8024304707845
 20
-3.91302003860474
 11
-49.8024304707845
 21
-3.91302003860474
  0
TEXT
  8
1
 40
6.075
 41
0.75
  1
1
  7
STANDARD
 10
53.8024304707845
 20
7.08697996139526
  0
TEXT
  8
1
 40
6
 41
0.75
  1
9
  7
STANDARD
 72
2
 10
-53.8024304707845
 20
7.04947996139526
 11
-53.8024304707845
 21
7.04947996139526
  0
CIRCLE
  8
1
 10
-44.9323431650798
 20
9.5
 40
3
  0
CIRCLE
  8
1
 10
35.0663737966857
 20
9.47818835001283
 40
3
  0
CIRCLE
  8
1
 10
25.0663737966857
 20
9.47818835001283
 40
3
  0
CIRCLE
  8
1
 10
15.0663737966857
 20
9.47818835001283
 40
3
  0
CIRCLE
  8
1
 10
5.06637379668571
 20
9.47818835001283
 40
3
  0
CIRCLE
  8
1
 10
-4.93362620331428
 20
9.47818835001283
 40
3
  0
CIRCLE
  8
1
 10
-14.9336262033143
 20
9.47818835001283
 40
3
  0
CIRCLE
  8
1
 10
-24.9336262033143
 20
9.47818835001283
 40
3
  0
CIRCLE
  8
1
 10
-34.9336262033143
 20
9.47818835001283
 40
3
  0
CIRCLE
  8
1
 10
-34.9323431650798
 20
-10.5
 40
3
  0
CIRCLE
  8
1
 10
-39.9323431650798
 20
-0.5
 40
3
  0
CIRCLE
  8
1
 10
35.0663737966857
 20
-10.5218116499872
 40
3
  0
CIRCLE
  8
1
 10
25.0663737966857
 20
-10.5218116499872
 40
3
  0
CIRCLE
  8
1
 10
15.0663737966857
 20
-10.5218116499872
 40
3
  0
CIRCLE
  8
1
 10
40.0663737966857
 20
-0.521811649987171
 40
3
  0
CIRCLE
  8
1
 10
30.0663737966857
 20
-0.521811649987171
 40
3
  0
CIRCLE
  8
1
 10
20.0663737966857
 20
-0.521811649987171
 40
3
  0
CIRCLE
  8
1
 10
5.06637379668571
 20
-10.5218116499872
 40
3
  0
CIRCLE
  8
1
 10
-4.93362620331428
 20
-10.5218116499872
 40
3
  0
CIRCLE
  8
1
 10
-14.9336262033143
 20
-10.5218116499872
 40
3
  0
CIRCLE
  8
1
 10
-24.9336262033143
 20
-10.5218116499872
 40
3
  0
CIRCLE
  8
1
 10
10.0663737966857
 20
-0.521811649987171
 40
3
  0
CIRCLE
  8
1
 10
0.0663737966857146
 20
-0.521811649987171
 40
3
  0
CIRCLE
  8
1
 10
-9.93362620331428
 20
-0.521811649987171
 40
3
  0
CIRCLE
  8
1
 10
-19.9336262033143
 20
-0.521811649987171
 40
3
  0
CIRCLE
  8
1
 10
-29.9336262033143
 20
-0.521811649987171
 40
3
  0
LINE
  8
1
 10
-38.7479520678047
 20
-19.5
 11
38.6762430865264
 21
-19.5
  0
LINE
  8
1
 10
-43.7479520678047
 20
19.5172053130017
 11
43.6762430865264
 21
19.5395693351177
  0
LINE
  8
1
 10
51.329352282338
 20
9.03736021084126
 11
46.2720008105635
 21
-14.0108692912477
  0
ARC
  8
1
 10
38.6762430865264
 20
-11.5
 40
8
 50
270
 51
341.708074025052
  0
ARC
  8
1
 10
43.6762430865264
 20
11.5
 40
8.03956933511768
 50
342.162711720608
 51
90
  0
ARC
  8
1
 10
-43.7479520678048
 20
11.4549475647031
 40
8.06225774829856
 50
90
 51
197.611225192215
  0
LINE
  8
1
 10
-51.4323431650798
 20
9.01565802384888
 11
-46.2704802842475
 21
-14.2521407189521
  0
POLYLINE
  8
1
 70
0
 66
1
 40
0
 41
0
  0
VERTEX
  8
1
 10
-46.2704802842475
 20
-14.2521407189521
 42
0
 70
2
 50
90
  0
VERTEX
  8
1
 10
-46.1075162911735
 20
-14.6637594268695
 42
0
 70
2
 50
90
  0
VERTEX
  8
1
 10
-45.9217937916907
 20
-15.0657339342745
 42
0
 70
2
 50
90
  0
VERTEX
  8
1
 10
-45.7138871087573
 20
-15.4568211866701
 42
0
 70
2
 50
90
  0
VERTEX
  8
1
 10
-45.4844391670672
 20
-15.8358117969963
 42
0
 70
2
 50
90
  0
VERTEX
  8
1
 10
-45.2341595048884
 20
-16.2015337855036
 42
0
 70
2
 50
90
  0
VERTEX
  8
1
 10
-44.9638220799067
 20
-16.5528562039502
 42
0
 70
2
 50
90
  0
VERTEX
  8
1
 10
-44.6742628758613
 20
-16.8886926329138
 42
0
 70
2
 50
90
  0
VERTEX
  8
1
 10
-44.3663773173728
 20
-17.2080045414043
 42
0
 70
2
 50
90
  0
VERTEX
  8
1
 10
-44.041117500957
 20
-17.5098044983868
 42
0
 70
2
 50
90
  0
VERTEX
  8
1
 10
-43.6994892507894
 20
-17.7931592262859
 42
0
 70
2
 50
90
  0
VERTEX
  8
1
 10
-43.3425490083228
 20
-18.0571924870262
 42
0
 70
2
 50
90
  0
VERTEX
  8
1
 10
-42.9714005653783
 20
-18.3010877916861
 42
0
 70
2
 50
90
  0
VERTEX
  8
1
 10
-42.5871916508105
 20
-18.5240909253847
 42
0
 70
2
 50
90
  0
VERTEX
  8
1
 10
-42.191110381304
 20
-18.7255122795943
 42
0
 70
2
 50
90
  0
VERTEX
  8
1
 10
-41.7843815872749
 20
-18.9047289846666
 42
0
 70
2
 50
90
  0
VERTEX
  8
1
 10
-41.3682630252404
 20
-19.0611868359765
 42
0
 70
2
 50
90
  0
VERTEX
  8
1
 10
-40.9440414883684
 20
-19.1944020077289
 42
0
 70
2
 50
90
  0
VERTEX
  8
1
 10
-40.5130288272347
 20
-19.3039625491279
 42
0
 70
2
 50
90
  0
VERTEX
  8
1
 10
-40.0765578930944
 20
-19.3895296582813
 42
0
 70
2
 50
90
  0
VERTEX
  8
1
 10
-39.63597841621
 20
-19.4508387299025
 42
0
 70
2
 50
90
  0
VERTEX
  8
1
 10
-39.1926528319844
 20
-19.4877001735675
 42
0
 70
2
 50
90
  0
VERTEX
  8
1
 10
-38.7479520678047
 20
-19.5
 42
0
 70
2
 50
90
  0
SEQEND
  8
1
  0
ENDBLK
  8
0
  0
ENDSEC
  0
SECTION
  2
ENTITIES
  0
INSERT
  8
1
  2
B2965_00995735
 10
63.2586784362793
 20
24
  0
ENDSEC
  0
EOF
